Cifra da música: Again I go Unnoticed - Dashboard Confessional

Esse cifra de Dashboard Confessional já foi acessado por 528 pessoas.

Comente

A música Again I go Unnoticed fez muito sucesso quando foi gravada por Dashboard Confessional. Quer conhecer a letra dela? Veja a letra de Again I go Unnoticed e cante.

Veja também o vídeo da música tocada.


e|--------------------------------------------------
B|--------------------------------------------------
G|-8------------------------------------------------
D|-8----10----8-------------------------------------
A|-6----10----8-------------------------------------
E|-------8-----6------------------------------------

e|--------------------------------------------------
B|--------------------------------------------------
G|--8-----------------------------------------------
D|--x-----------------------------------------------
A|--6-----------------------------------------------
E|--------------------------------------------------

e|--------------------------------------------------
B|--------------------------------------------------
G|-8------------------------------------------------
D|-8----8---10----6---------------------------------
A|-6----8---10----6---------------------------------
E|------6----8----4---------------------------------

'I'll wait until tommorow maybe you'll feel better than....' This is what the 
first guitar plays
e|--------------------------------------------------
B|--------------------------------------------------
G|----------8---------------------------------------
D|-3---6----8---------------------------------------
A|-3---6----6-----8---------------------------------
E|-1---4----------6---------------------------------

e|--------------------------------------------------
B|--------------------------------------------------
G|-10----8-----15---12------------------------------
D|--x----x------x----x------------------------------
A|--8----6-----13---10------------------------------
E|--------------------------------------------------

This song and this band are awesome...I hope this tab helps you out, its my 
version of the song....cuz I know when the guy recorded it he used like 
overdubbing and crazy style shit like that...but this is how he plays it 
live. If you've got any question comments, or if u liked or hated this tab, 
send me mail

Later on man and keep up the rock,
Connor

xxxxxxxxxxxxxxxxxxxxxxxxxxxxxxxxxxxxxxxxxxxxxxxxxxxxxxxxxxxxxxxxxxxxxxxxx

Again I go Unnoticed
Tune half-step down to Eb-Ab-Db-Gb-Bb-eb


E   			C#  
So quiet, another wasted night
			B
television steals the conversation
E   			C#  
exhale, another wasted breath,
		B
again I go unnoticed.

E				B 
Please tell me you're just feeling tired.
		C#
cause if it's more than that,
A
I feel that I might break.
E		 B	C#		A  
Out of touch, out of time.
E
Please send me anything 
			B
but signals that are mixed, 
	C#			A
cause I can't read your roaming eyes.
E			B		C#	A  
out of touch, are we out of time?

E   				C#  
Closed-lipped, another goodnight kiss
			B
It's robbed of all its passion
E   				C#  
You're grip, another time to slack,
			B
It leaves me feeling empty.


E				B 
Please tell me you're just feeling tired.
			C#
cause if it's more than that,
A
I feel that I might break.
E			B		C#	A  
Out of touch, are we out of time.
E						
Please send me anything
			B
but signals that are mixed, 
	C#			A
cause I can't read your roaming eyes.
E		B		C#	A  
out of touch, are we out of time?


F#		A
I'll wait until tommorow,
			E	
maybe you'll feel better then,
			B
Maybe we'll be better then.
F#		A
so what's another day
		E
when I can maybe bear these nights of thoughts
		B
of going on without you

F#			A
this mood of yours is temporary.
	E		
seems worth the wait
		B
to see your smile again.
F#			A
out of the corner of my eye,
		E
will be the only way
		B
you're looking at me then,


E  			C#  
So quiet, another wasted night
		B
television steals the conversation
E  			C#  
exhale, another wasted breath,
		B
again I go unnoticed.

xxxxxxxxxxxxxxxxxxxxxxxxxxxxxxxxxxxxxxxxxxxxxxxxxxxxxxxxxxxx

Eb Ab Db Gb Bb Eb
1---2---3---4---
x xxx xxx xxx xx

Acordes:
Eb   0          0         0  
Bb   0          0         0
Gb   9          6         4
Db   9          6         4
Ab   7          4         2
Eb   0

'please tell me you're just feeling tired':
Eb   0   0   0   0
Bb   0   0   0   0
Gb   9   4   6   2
Db   9   4   6   2
Ab   7   2   4   0
Eb   0

'i'll wait until tomorrow'
Eb   2   0   0   4
Bb   2   0   0   4
Gb   2   2   1   4
Db   4   2   2   6
Ab   4   0   2   6
Eb   2       0   4

Final -->'exhale, another wasted breath'
1---2---3---4---!1---2---3---4---!1---2---3---4---!1---2---3---4---!1---
x       x       !x       x   x xx!x       x       !x       x   x xx!x





Quer fazer uma correção nesta cifra?







    Comentários (0) Postar um Comentário

    Nenhum comentário encontrado. Seja o primeiro!