Cifra da música: The Best Deceptions - Dashboard Confessional

Esse cifra de Dashboard Confessional já foi acessado por 754 pessoas.

Comente

A música The Best Deceptions fez muito sucesso quando foi gravada por Dashboard Confessional. Quer conhecer a letra dela? Veja a letra de The Best Deceptions e cante.

Veja também o vídeo da música tocada.


Obs.: Originalmente essa música é tocada com outra afinação.
Na hora de transpor a música para a afinação comum eu mudei
o tom (que foi de E para C#) para facilitar a execução.


Introdução (2x):
E||--------------------------|--------------------------||
B||--------------------------|--------------------------||
G||--------------------------|--------------------------||
D||--------2-----------2-----|--------2-----0-----------||
A||-----0-----4-----0-----4--|-----0-----4-----4--2--4--||
E||--0-----------4-----------|--2-----------------------||

Verso (6x cada estrofe):
E [--0---0-0---0---0-0---2---2-2---3-2-0-2----]
B [--0---0-0---0---0-0---3---3-3---3-3-3-3----]
G [--2---2-2---1---1-1---2---2-2---2-2-2-2----]
D [--2---2-2---2---2-2---0---0-0---0-0-0-0----]
A [--0---0-0---2---2-2------------------------]
E [--0---0-0---0---0-0------------------------]

Letra Cifrada:

Asus2      E          D                 (Dsus4 D Dsus2 D)
I heard about your trip. 
I heard about your souvenirs. 
I heard about the cool breeze, in the cool nights, 
and the cool guys that you spent them with. 
Well I guess I should have heard of them from you. 
I guess I should have heard of them from you. 

Asus2      E          D
Don't you see, don't you see, 
that the charade is over? 
And all the 'Best Deceptions' and 'Clever Cover Story' awards go to you. 
So kiss me hard
'cause this will be the last time that I let you. 
You will be back someday 
and this awkward kiss that tells of other people's lips will be of service 
to keeping you away. 

Asus2      E          D                 (Dsus4 D Dsus2 D)
I heard about your regrets.
I heard that you were feeling sorry. 
I heard from someone that you wish you could set things right between us. 
Well I guess I should have heard of them from you. 
I guess I should have heard of them from you. 

(A última parte fica melhor usando os acorde com pestana.)
Asus2      E          D          E
I'm waiting for blood to flow to my fingers,
I'll be all right when my hands get warm. 
Ignoring the phone, I'd rather say nothing. 
I'd rather you'd never heard my voice. 
too late to be gracious 
and you do not warrant long good-byes. 
You're calling too late.





Quer fazer uma correção nesta cifra?







    Comentários (0) Postar um Comentário

    Nenhum comentário encontrado. Seja o primeiro!