Cifra da música: Ower of a Lonely Heart - Yes

Esse cifra de Yes já foi acessado por 922 pessoas.

Publicidade
Comente

A música Ower of a Lonely Heart fez muito sucesso quando foi gravada por Yes. Quer conhecer as demais músicas? Conheça as letras das músicas gravadas por Yes e aproveite.

Veja também o vídeo da música tocada.


A música começa da seguinte forma:

Solo introdução: Tocar na Guitarra com distorção:
E ------------
B ------------    
G ------------   TOCAR TRÊS
D 2-2-4-5-7-7-     VEZES
L 0-0-2-3-5-5-
M ------------

Após tocar o a introdução acima, tocar durante quase a música toda

E ------------------
B ------------------
G ------------------
D 2-2-4-5-7-7-------
L 0-0-2-3-5-5-5-5-5-
M ------------3-3-3-


i don't know the muted part for sure, but this is what i got...

-------------------
--3---0--5-3-------    
-------------2-----
---------------2-4-
0---0--------------
-------------------

repeated over and over.




Also, i have a little bit from LONG DISTANCE RUNAROUND at the beginning.

-----------15-12----------
---------15-----12-------
-------15---------12-----
--14s15-------------12-14
-------------------------
-------------------------

       repeat with this instead ------------------------
		of the 14       --17---16---14---12-----
                                ----15---15---15---13---
	                        ------------------------
	                        ------------------------
                                ------------------------

okay, so i admit the followup part is a little off, but hey, it still
sounds pretty nifty.

_______________________________________________________________________


Quer fazer uma correção nesta cifra?





    Comentários (0) Postar um Comentário

    Nenhum comentário encontrado. Seja o primeiro!