Cifra da música: With or Without You - U2

Esse cifra de U2 já foi acessado por 2189 pessoas.

Comente

A música With or Without You fez muito sucesso quando foi gravada por U2. Quer conhecer a letra dela? Veja a letra de With or Without You e cante.

Veja também o vídeo da música tocada.


Same four chords repeat throughout song: 

 D D/A Bm7 D/G 

A simplified version can be played. Here it goes. If you want 
to play the original version, replace the four chords. 

 D      A                 Bm 
See the stone set in your eyes, 
         G                   D 
See the thorn twist in your side 
  A         Bm   G 
I wait for you 

Sleight of hand and twist of fate 
On a bed of nails she makes me wait 
And I wait....without you 

With or without you 
With or without you 

Through the storm we reach the shore 
You give it all but I want more 
And I'm waiting for you 

With or without you, with or without you 
I can't live with or without you 

And you give yourself away 
And you give yourself away 
And you give 
And you give 
And you give yourself away 

My hands are tied 
My body bruised, she's got me with 
Nothing to win 
And nothing left to lose 

With or without you 
With or without you 
I can't live 
With or without you 

 TAB (Guitar parts during chorus): 
|---10---10-10---10--------------------| 
|-8----8-------8----7------------------| 
|---------------------------0-0-0------| 
|---------------------0-0-0------------| 
|--------------------------------------| 
|--------------------------------------| 

Solos at end are formation of D chords: 
  -2-0-0-2-3---------------- 
  -3-3-3-3-3---------------- 
  -2-2-0-2-2---------------- 
  -------------------------- 
  -------------------------- 
  -------------------------- 
  note that for each chord formation above, each repeats several times, and 
  the entire chord sequence of the 5 chord formation above repeats also. 

adicional por Rafael Fiorott Oliveira

quando tocar com um violão, execute a seguinte progressão, fica muito bom..é só treinar um pouco que logo você já pega o tempo..

   D		    Dadd9/A 	    D/B             D/G
------------2---------------0---------------2---------------3-----------------
--------3-------3-------3-------3-------3-------3-------3-------3------------
------2---2---2---2---2---2---2---2---2---2---2---2---2---2---2---2----------
----0-------------------------------------------------------------------------
--------------------0---------------2----------------------------------------
----------------------------------------------------3-------------------------
com outro violão pode ser feito o baixo da música ( esse é o original pra baixo mesmo!),que é o seguinte
E|10-10-10-10-10-10-10-10|---------------|----------------|
A|-----------------------|0-0-0-0-0-0-0-0|2-2-2-2-2-2-2-2-|
D|-----------------------|---------------|----------------|
G|-----------------------|---------------|----------------|

E|3-3-3-3-3-3-3-3 ||
A|--------------- ||
D|--------------- ||
G|--------------- ||
porém, ao vivo o Adam Clayton ( meu bruxo )gosta de tocar assim, que é muito mais legal.
E 10-10-10-10-10-10-10-10|5-5-5-5-5-5-5-5|7-7-7-7-7-7-7-7|
A|------------------------|---------------|----------------|
D|------------------------|---------------|----------------|
G|------------------------|---------------|----------------|

E|3-3-3-3-3-3-3-3 ||   se ligue nos slides que são o segredo da progressão
A|---------------- ||   se for tocar em um baixo mesmo ainda existe a opção de fazer
D|---------------- ||   de um outro jeito, que o adam tb gostava de  
                         fazer na turnê de 1987-89 

E 10-10-10-10-10-10-10-10-|17-17-17-17-17-17-17-17|

E 19-19-19-19-19-19-19-19-|15-15-15-15-15-15-15-15||

ou então 

E|10-10-10-10-10-10-10-10-|-----------------------|
A|------------------------|12-12-12-12-12-12-12-12|

E|------------------------|15-15-15-15-15-15-15-15||
A|14-14-14-14-14-14-14-14-|-----------------------||

falou então.Um abraço de um cara que vive no estado mais rock'n roll deste país...o Rio Grande do Sul..!!!!


____________________________________________________


Quer fazer uma correção nesta cifra?







    Comentários (0) Postar um Comentário

    Nenhum comentário encontrado. Seja o primeiro!