Cifra da música: In a little while - U2

Esse cifra de U2 já foi acessado por 1228 pessoas.

Comente

A música In a little while fez muito sucesso quando foi gravada por U2. Quer conhecer a letra dela? Veja a letra de In a little while e cante.

Veja também o vídeo da música tocada.


E--------------------------------------------------
B-----5----------7----------7----------8-----------
G-------6----------6----------7----------7---------
D--/7-----7---/8-----8---/9-----9---/9-----9-------
A--------------------------------------------------
E--------------------------------------------------


E--------------------------------------------------
B-----7-----7h8p7------5--5--5--5------------------
G-------7---------7----6--6--7--6------------------
D--/7-----7---------7--7--7--7--7------------------
A--------------------------------------------------
E--------------------------------------------------

      A             F#
In a little while
    Bm            G     D
Surely you'll be back
                        A
In a little while I'll be there

      A             F#
In a little while
       Bm               G     D  
This hurt will hurt no more
                    A
I'll be home, love

            A   F#            Bm     G  D
When the night takes a deep breath
                        A
And the daylight has no end
       A   F#           Bm        G   
If I crawl, if I come crawling home
       D         A 
Will you be there

Bm     G     D     A

      A             F#
In a little while
         Bm            G     D
I will blow by every breeze
                    A
Friday night running

To Sunday on my knees

A          F#         Bm
  That girl, that girl
       G       
She's mine
D                          A
 And I've know her since


                  A           F#
Since you were a little girl
       Bm           G
With Spanish eyes
D
Oh, when I saw her
     A
In a pram they pushed her by
A     F#
Uuuuh Uuh
   Bm                 G
My, how you've grown
D
Well it's been
A
  It's been a little while

Bm     G     D     A

Bm     G

D                A
  Slow down my bleeding heart
Bm                G
  Man dreams one day to fly
   A           D         A          D  
A man takes a rocketship into the skys
   
    Bm                     G
He lives on starlets dying in the night
     A           D
And follows in the trail
      A         D
The scatter of light

        A     F#     Bm
Turn it on
G         D
Turn it on

You turn me on
A
Mh Mhhhhhhmm

Bm     G
D                A
  Slow down my bleeding heart
Bm     G
D      A   
Slowly, slowly love

Bm               G
  Slow down my bleeding heart
A   D   A   D
 Slowly, slowly love
Bm               G
  Slow down my beating heart
A   D   A             Dddddd.... [fading out]
 Slowly, slowly love




Quer fazer uma correção nesta cifra?







    Comentários (0) Postar um Comentário

    Nenhum comentário encontrado. Seja o primeiro!