Cifra da música: Monkey Bussiness - Skid Row

Esse cifra de Skid Row já foi acessado por 489 pessoas.

Comente

A música Monkey Bussiness fez muito sucesso quando foi gravada por Skid Row. Quer conhecer as demais músicas? Conheça as letras das músicas gravadas por Skid Row e aproveite.

Veja também o vídeo da música tocada.


p    = Pull off
  h    = Hammer on
/ or  = Slide
  a.h  = Artificial harmonic
  P.M  = Palm muting
  x    = Muffled strings


    INTRO - Play 3X
E|-------------------------------------------------------------------------|
B|-------------------------------------------------------------------------|
G|--------2--4----2h4p2---------------------2--4----2h4p2------------------|
D|---2h4--2--4----2h4p2--4-2--42------2h4--2--4----2h4p2--4-2--42--------|
A|---2h4-----------------4-2--42------2h4-----------------4-2--42--------|
E|-------------------------------------------------------------------------|

E|-------------------------------------------------------------------------|
B|-------------------------------------------------------------------------|
G|--------2--4----2h4p2---------2/4----------------------------------------|
D|---2h4--2--4----2h4p2--4-2--4-2/4---x--2---------------------------------|
A|---2h4-----------------4-2--4-------x--2---------------------------------|
E|---------------------------------------0---------------------------------|


   Fill A
                   p.m|-----|
E|-------------------------------------------------------------------------|
B|-------------------------------------------------------------------------|
G|------2---------------------------2--------------------------------------|
D|------2--4-2-3-4-2--2-3-4---------2--4-2-3-4-2--2h4p2h4p2----------------|
A|---------4-2-3-4-2--2-3-4------------4-2-3-4-2---------------------------|
E|-------------------------------------------------------------------------|

                   p.m|-----|   a.h  p.m|------------|
E|-------------------------------------------------------------------------|
B|-------------------------------------------------------------------------|
G|------2-----------------------4-----------------------4------------------|
D|------2--4-2-3-4-2--2-3-4------------4-2---2----------4--2---------------|
A|---------4-2-3-4-2--2-3-4----------------4---4-3-2-------2---------------|
E|---------------------------------------------------------0---------------|


   Fill B

    p.m|-------|   p.m|-------|        p.m|-------|   p.m|------|
E|-------------------------------------------------------------------------|
B|-------------------------------------------------------------------------|
G|--------------2--------------2h4-2---------------2-----------------------|
D|-----4-4-4-4--2-----4-4-4-4--2h4-2-4----4-4-4-4--2----4-4-4-4--2-3-4-----|
A|-----4-4-4-4--------4-4-4-4--------4----4-4-4-4-------4-4-4-4--2-3-4-----|
E|-------------------------------------------------------------------------|

     p.m|-------|   p.m|-------|        p.m|-------|   p.m|------|
E|-------------------------------------------------------------------------|
B|-------------------------------------------------------------------------|
G|---------------2--------------2h4-2---------------2----------------------|
D|------4-4-4-4--2-----4-4-4-4--2h4-2-4----4-4-4-4--2----4-4-4-4--4-2------|
A|------4-4-4-4--------4-4-4-4--------4----4-4-4-4-------4-4-4-4--4-2------|
E|------------------------------------------------------------------0------|


   Fill C
                p.m|-----|
E|-------------------------------------------------------------------------|
B|-------------------------------------------------------------------------|
G|---2----------------------2---------2h4p2h4p2h4p2------------------------|
D|---2--4-2-3-4-2--2-3-4----2--4-2-3-----------------42-------------------|
A|------4-2-3-4-2--2-3-4-------4-2-3---------------------------------------|
E|-------------------------------------------------------------------------|


    Repeat Fill B


    Fill D
                    p.m|---|          p.m|---|               a.h
E|-----------------------------------------------------------------------|
B|-----------------------------------------------------------------------|
G|------4-----2-------------2--------------------2-----4-----4-----------|
D|------4--2--2---2h4--4-4--2----x-x---2h4--4-4--2-----4--2--------------|
A|---------2------2h4--4-4-------x-x---2h4--4-4-----------2--------------|
E|---------0----------------------------------------------0--------------|


        p.m|---|             p.m|---|
E|-------------------------------------------------------------------------|
B|-------------------------------------------------------------------------|
G|--------------2--------------------2---4-----2--6-5-4---2-4-------------|
D|----2h4--4-4--2----x-x---2h4--4-4--2---4--2--2--6-5-4---2-4-2---4-4-4---|
A|----2h4--4-4-------x-x---2h4--4-4---------2------------------2---4-4-4---|
E|------------------------------------------0------------------0-----------|

E|-----------------------|
B|-----------------------|
G|-----------------------|
D|----4-2---2------------|
A|--------4---4-3-2------|
E|-----------------------|


   Repeat Fill A

   Repeat Fill B

   Repeat Fill D

   Repeat Fill A (2x)

E|-------------------------------------------------------------------------|
B|-------------------------------------------------------------------------|
G|-------------------------------------------------------------------------|
D|---4-4-4---4--2----2---------4-4-4---4--2----2--------4-2---------2/4----|
A|---4-4-4---------4---4-3-2---4-4-4---------4---4-3-2--4-2---------2/4----|
E|--------------------------------------------------------0----------------|


This part of the song I dont know how to play. The base of the solo
is the Fill D. The rest of the song is similar to the fills.




Quer fazer uma correção nesta cifra?







    Comentários (0) Postar um Comentário

    Nenhum comentário encontrado. Seja o primeiro!