Cifra da música: I Remember You - Skid Row

Esse cifra de Skid Row já foi acessado por 2083 pessoas.

Comente

A música I Remember You fez muito sucesso quando foi gravada por Skid Row. Quer conhecer a letra dela? Veja a letra de I Remember You e cante.

Veja também o vídeo da música tocada.


Intro/Verse:
  G                Cadd9
e|-3-3-3--3-------|-0-0-0--0---------|
B|-3-3-3----------|-3-3-3----0h3p0---|
G|-0-0-0----------|-0-0-0----------0-|
D|-0-0-0--------2-|-2-2-2------------|
A|-2-2-2----0h3---|-3-3-3------------|
E|-3-3-3----------|------------------|
This fig. can be used during the verses, or you can just strum the chords.

G                                     G
 Woke up to the sound of               Paint a picture of the
Cadd9                                 Cadd9
 Pouring rain                          Days gone by
G                                     G
 Wind would whisper and I'd            When love went blind and you would
Cadd9                                 Cadd9
 think of you.                         Make me see.
G                                     G
 And all the tears you cried they      I'd stare a lifetime in-
Cadd9                                 Cadd9
 Call my name                          -to your eyes
D                                     D
 And when you needed me                So that I knew that you were
C                                     C
 I came thru.                          There for me
                                      D
                                       Time after time you were
                                      C
                                       There for me.

Chorus
G                    D
 Remember yesterday,  Walkin hand in hand
Em                         C      D
 Love letters in the sand,   I remember
G                                   D
 you. Through the sleepless nights   Through every endless day
Em                     C     D
 I wanna hear you say   I remember
G             Cadd9
 you.
G             Cadd9

2nd Verse:
G                              Cadd9
 We spent the summer with the  top rolled down.
G                        Cadd9
 Wished ever after could   be  like this.
G                               Cadd9
 You said I love you babe with   out  a sound.
D                                C
 I said I'd give up my life for just one kiss.
D                           C
 Live for your smile, and  die for your kiss.
 (repeat chorus)
 At the end of the chorus 2nd time, play G again instead of Cadd9 then 
 go to bridge:

Bridge:
Am                               Em 
 We had our share of hard times     But thats the price we pay
Am                               D
 And thru it all, we kept the  promise that we made...
D
 I swear you'd never be lonely__
G             Cadd9
 _____.
 (solo)
G             Cadd9
G             Cadd9
D             C
D             C
G             Cadd9
G             Cadd9
G                            Cadd9
 Woke up to the sound of      Pouring rain
 Washed away a                Dream of you
 But nothing else could ever  take you away
D                           C
 Cause you'll always be my   Dream come true
 Oh my Darling,              I love you.
 (repeat chorus several times)

Outro:
 G                Cadd9             G                D*     C*     G
e|---------------------------------|------------------2/42---------3--------|
B|---------3---------------3-------|---------3--------3/53--1/31--3--------|
G|-----0-----0---0-----0-----0---0-|-----0-----0---0--2/42--0-0-0--0--------|
D|---0---0-----0-----2---0-----2---|---0---0-----0-----------2/42--0--------|
A|-2---------------3---------------|-2-----------------------3/53--2--------|
E|---------------------------------|--------------------------------3--------|
*-let ring, don't strum chord after sliding

Cadd9
e|--0 |o----
B|--3 |---3-
G|--0 |o----
D|--2 |--1--
A|--3 |---2-
E|--X |X----

solo
e|---------------------------------------|
B|-------------------------5-7-8~-8p7-8--|
G|-------------------4-5-7---------------|
D|-----------2-4-5-7---------------------|
A|-----2-3-5-----------------------------|
E|-3-5-----------------------------------|

e|------------------------------------------|
B|-7h8-----------------------------7(h)-----|
G|-----7h8------------------------------7/--|
D|---------10-7-10-7----7-9-7---------------|
A|-------------------10-------10------------|
E|------------------------------------------|

e|-------------------10s15-15--12-10----------|
B|--------------8s10-----------------12-10-8~-|
G|-----------7--------------------------------|
D|----7-9-10----------------------------------|
A|-10-----------------------------------------|
E|--------------------------------------------|

e|-----------------------17(h)------/19~-17h19p17-19--|
B|-10b-8h10-8-10-8------------------------------------|
G|-----------------9-7-9------------------------------|
D|----------------------------------------------------|
A|----------------------------------------------------|
E|------------------------------/--------------------|

e|-/7--------7-----------------------------------------|
B|----7-8-10---10-8-7-8--------------------------------|
G|----------------------9-7----------------------------|
D|-----------------------------7-9-10----7-9-10-9------|
A|--------------------------10--------10-----------10~-|
E|-----------------------------------------------------|

e|------------------------------------------------|
B|-8~-5s7------------------------/8~--------------|
G|--------7s9------------------------/7~-4(h)-----|
D|------------9/-7h9-9-7-5-7-9-5~-------------5~--|
A|------------------------------------------------|
E|------------------------------------------------|
solo por Jonatas Albino, banda ENIGMA, RR







Quer fazer uma correção nesta cifra?







    Comentários (0) Postar um Comentário

    Nenhum comentário encontrado. Seja o primeiro!