Cifra da música: Why Don´t You and I - Santana

Esse cifra de Santana já foi acessado por 632 pessoas.

Comente

A música Why Don´t You and I fez muito sucesso quando foi gravada por Santana. Quer conhecer as demais músicas? Conheça as letras das músicas gravadas por Santana e aproveite.

Veja também o vídeo da música tocada.


Afinação normal (E)

Chord Formations:

Bb:   x13331	Cm:  x35543
F:    133211	Eb:  x65343
Ab:   466544



Solo Intro
e|-----------------------------------------------------------------------------|
B|-----------------------------------------------------------------------------|
G|---5h7--5---3h5--3---3-2----2-5-3-2-3-2-0-----------3-----10-12--12-12-14-14-|
D|----------------------------------------------3-5----------------------------|
A|-----------------------------------------------------------------------------|
E|-----------------------------------------------------------------------------|

e|-------------------------------------------13--------------------------------|
B|--------13---13---15-15h16p15-----15-13-15----16-15-13----13-15-13-15brb~~--|
G|-15-15----15-------------------------------------------15--------------------|
D|-----------------------------------------------------------------------------|
A|-----------------------------------------------------------------------------|
E|-----------------------------------------------------------------------------|



Verse:
Bb        F  
Since the moment I spotted you
Ab                             Eb
Like walking round with little wings on my shoes
Bb           F                       Ab
My stomach’s filled with the butterflies
Eb
Mmm and it’s alright
Bb        F
Bouncing around from cloud to cloud
Ab                         Eb
I got the feeling like I’m never gonna come down
Bb                 F                            Ab
If I said I didn’t like it then you’d know I’d lied
Eb
Mm

Pre-Chorus:
Cm
Every time I try to talk to you
Eb
I get tongue tied
               Cm
Turns out that every thing I say to you
          Eb
Comes out wrong and never comes out right so I say


Chorus em power-chords c/ dist.:
Bb5               F5
Why don’t you and I get together
Bb5                               C5
Take on the world be together forever
Bb5        F5              Bb5
     As we will tales will try again (?)
C5       Bb5               F5
So I say why don’t you and I hold each other
Bb5                               C5
Fly to the moon and straight on to heaven
Bb5                F5                      Bb5
‘Cause without you they’re never gonna let me in


Verse:
Wings been screaming, gonna break
I think I’ve handled more than any man can take
I’m like a lovesick puppy chasing you around
Oo and it’s alright
Bouncing around from cloud to cloud
I got the feeling like I’m never gonna come down
If I said I didn’t like it then you’d know I’d lied
Mm

Pre-chorus

Chorus

Bridge:
Cm                        Eb
Slowly I begin to realize this is never gonna end
              Cm                                Eb
But about the same time, you walk by and I say “Oh here we go again” oh

Solo (Notas do Refrão)

Pre-chorus

Chorus

Solo (Notas do Refrão)

Chorus

_______________________________________________________
Contribuição: neto Betiol([email protected])
Correção: Rafael Morosoli ([email protected])
Correção: Bernardo Rohden Pires ([email protected])
Correção: Rafael Marino ([email protected])
Correção: Rafael Zaum ([email protected])
Correção: Wanderson Ávila ([email protected])


Quer fazer uma correção nesta cifra?







    Comentários (0) Postar um Comentário

    Nenhum comentário encontrado. Seja o primeiro!