Cifra da música: Flor de Luna - Santana

Esse cifra de Santana já foi acessado por 679 pessoas.

Comente

A música Flor de Luna fez muito sucesso quando foi gravada por Santana. Quer conhecer as demais músicas? Conheça as letras das músicas gravadas por Santana e aproveite.

Veja também o vídeo da música tocada.


E aí pessoal!!!Essa musica eu tirei ouvindo,então se alguém tiver
uma outra sugestão o meu email é: [email protected]

Eu só escrevi até uma parte um pouco depois daquele tipo improviso.

Afinação:e - d
         b - a 
         g - f
         d - c
         a - g
         E - D



|-------------------------------------------------
|---------17----15-13-12-----15Br--13-12-12h13----
|------16--------------------------------------14-
|---14--------------------------------------------
|-------------------------------------------------
|-------------------------------------------------

|-------------------------------------------------
|---------------------------------------------15--
|--------11-12-12/14--12-14-14/16-------16-17-----
|-------------------------------------------------
|-------------------------------------------------
|-------------------------------------------------

|-------------------------------------------------
|---13-15-15/17~----------------------------------
|-------------------/14-16-17-16-14-16-12-14-16---
|-------------------------------------------------
|-------------------------------------------------
|-------------------------------------------------

|-------------------------------------------------
|-------------------------------------------------
|-14-12-14-11-12-14-12-11-9-----------------------
|-------------------------------------------------
|-------------------------------------------------
|-------------------------------------------------

                                                    |                    REPETE                       |
|-------------------------------------------------|


|------------------------------------------------
|------15-15B--19br-17-17B--19p17------15h17-15-
|16-17--------------------------(x)-(x)----------
|------------------------------------------------
|------------------------------------------------
|------------------------------------------------

|------------------------------------------------
|------------------------------------------------
|-16h17p16-14~---11-12-14-16-16h17-16~----16--17-
|------------------------------------------------
|------------------------------------------------
|------------------------------------------------

|-------------------------------------------------
|--15-15B--20/22-20-19--20-20/22-17B--19p17-------
|-----------------------------------------(X)-(X)-
|-------------------------------------------------
|-------------------------------------------------
|-------------------------------------------------

|-------------------------------------------------
|--15h17-15---------------------------------------
|--------------16h17-16--14~--11-12-14-12-11-9----
|-------------------------------------------------
|-------------------------------------------------
|-------------------------------------------------

|-------------------------------------------------
|--------17----15-13-12-----15Br--13-12-12h13-----
|-----16--------------------------------------14--
|--14---------------------------------------------
|-------------------------------------------------
|-------------------------------------------------

|-------------------------------------------------
|---------------------------------------------15--
|--------11-12-12/14--12-14-14/16-------16-17-----
|-------------------------------------------------
|-------------------------------------------------
|-------------------------------------------------


|-------------------------------------------------
|---13-15-15/17~----------------------------------
|-------------------/14-16-17-16-14-16-12-14-16---
|-------------------------------------------------
|-------------------------------------------------
|-------------------------------------------------

|-------------------------------------------------
|-------------------------------------------------
|-14-12-14-11-12-14-12-11-9-----------------------
|-------------------------------------------------
|-------------------------------------------------
|-------------------------------------------------

|--------------------------|
|--------------------------|
|--16--16h17p16-14--17-17--|2X
|--------------------------|
|--------------------------|
|--------------------------|

|-------------------------------------------------
|---------------------------17--------------------
|-16--16h17p16-14--17-17-16-----16h17p16-14-------
|-------------------------------------------------
|-------------------------------------------------
|-------------------------------------------------


|-------------------------------------------------
|-------------------------------------------------
|-16-16-16h17p16-14/16/14-12---7h9p7--------------
|------------------------------------9-7----------
|----------------------------------------9/10~~---
|-------------------------------------------------

|-----------------------------------------------
|-----------------17-----19--------19------19b--
|--------12-16--16--16-16--16-16-16--16-16------
|-7/9-12----------------------------------------
|-----------------------------------------------
|-----------------------------------------------

|------------------------------------|
|--19b--19b-19b--19b--19-------------|
|------------------------19br--------|
|------------------------------------|
|------------------------------------|
|------------------------------------|



Se alguém souber do resto da musica,por favor me mande um e-mail.
Egberto F. P. de Vasconcellos([email protected])




Quer fazer uma correção nesta cifra?







    Comentários (0) Postar um Comentário

    Nenhum comentário encontrado. Seja o primeiro!