Cifra da música: Spieluhr - Rammstein

Esse cifra de Rammstein já foi acessado por 592 pessoas.

Comente

A música Spieluhr fez muito sucesso quando foi gravada por Rammstein. Quer conhecer a letra dela? Veja a letra de Spieluhr e cante.

Veja também o vídeo da música tocada.


                        Main Riff                         
E||-------------------|--------------------------|--------------------------|
B||-------------------|--------------------------|--------------------------|
G||-------------------|--------------------------|--------------------------|
D||--0----------------|--3--------3--------3-----|--3--------3--------3-----|
A||--0----------------|--3--------3--------3-----|--3--------3--------3-----|
D||--0----------------|--3--0--0--3--0--0--3--0--|--3--0--0--3--0--0--3--0--|


                                                      
--------------------------|--------------------------|
--------------------------|--------------------------|
--------------------------|--------------------------|
--3--------3--------3-----|--3--------3-----6--6--6--|
--3--------3--------3-----|--3--------3-----6--6--6--|
--3--0--0--3--0--0--3--0--|--3--0--0--3--0--6--6--6--|


Pick up notes   Chorus                                                                  
---------------|----------------------------------|----------------------------------|
---------------|----------------------------------|----------------------------------|
---------------|----------------------------------|----------------------------------|
------6--6--6--|*-11--11--11--11--11--11--11--11--|--13--13--13--13--13--13--13--13--|
------6--6--6--|*-11--11--11--11--11--11--11--11--|--13--13--13--13--13--13--13--13--|
------6--6--6--|--11--11--11--11--11--11--11--11--|--13--13--13--13--13--13--13--13--|


                                                       
--------------------------|--------------------------||
--------------------------|--------------------------||
--------------------------|--------------------------||
--9--9--9--9--9--9--9--9--|--4--4--4--4--6--6--6--6-*||
--9--9--9--9--9--9--9--9--|--4--4--4--4--6--6--6--6-*||
--9--9--9--9--9--9--9--9--|--4--4--4--4--6--6--6--6--||



Quer fazer uma correção nesta cifra?







    Comentários (0) Postar um Comentário

    Nenhum comentário encontrado. Seja o primeiro!