Cifra da música: Feuer Frei! - Rammstein

Esse cifra de Rammstein já foi acessado por 589 pessoas.

Comente

A música Feuer Frei! fez muito sucesso quando foi gravada por Rammstein. Quer conhecer a letra dela? Veja a letra de Feuer Frei! e cante.

Veja também o vídeo da música tocada.


Intro:
|Guitar 1
|e------
|B------
|G------
|D--2---
|A--2---
|E--0---
|
|Guitar 2 (tremolo down)
|e------------
|B--11-------
|G-----------
|D-----------
|A-----------
|E-----------
 
Main Riff:
e------------------------------------
B------------------------------------
G------------------------------------
D------------------------------------
A--5/6-x-5/6-x-5/6-x-5/6/7-8-8-8-8---
E--3/4-x-3/4-x-3/4-x-3/4/5-6-6-6-6---
 
Fill 1 (Guitar 1):
e--------------------
B--------------------
G--------------------
D--x-x-x-x-x-x-x-x---
A--x-x-x-x-x-x-x-x---
E--x-x-x-x-x-x-x-x---
 
Verse (listen to song for timing):
e------------
B------------
G------------
D------------
A--8-8-8-8---
E--6-6-6-6---
 
Fill 2
e----------------------------------------------------
B----------------------------------------------------
G----------------------------------------------------
D----------------------------------------------------
A--12-12-12-12-12-12-12-12-11-11-11-11-10-10-10-10---
E--10-10-10-10-10-10-10-10--9--9--9--9--8--8--8--8---
 
Bridge:
Synthesizer & Vocals
 
Song structure:
Intro             (00:10)
Main Riff x8      (00:20)     wa-wah pedal open
Fill 1            (00:39)
Main Riff x8      (00:41)
Verse             (01:13)
Fill 1            (01:20)
Main Riff x2      (01:21)
Fill 2            (01:27)
Main Riff x3      (01:29)
Fill 2            (01:37)
Main Riff x5      (01:39)
Main Riff x8      (01:52)     wa-wah pedal open
Verse             (02:04)
Fill 1            (02:11)
Bridge            (02:12)
Main Riff x2      (02:32)
Fill 2            (02:38)
Main Riff x3      (02:40)
Fill 2            (02:48)
Main Riff x3      (02:50)
Fill 2 x3         (02:58)
 
BANG! BANG!


Quer fazer uma correção nesta cifra?







    Comentários (0) Postar um Comentário

    Nenhum comentário encontrado. Seja o primeiro!