Cifra da música: Alter Mann - Rammstein

Esse cifra de Rammstein já foi acessado por 434 pessoas.

Comente

A música Alter Mann fez muito sucesso quando foi gravada por Rammstein. Quer conhecer a letra dela? Veja a letra de Alter Mann e cante.

Veja também o vídeo da música tocada.


Tuning is Drop D (DADGBE)

This is a very simple song, as long as you get the palm muting (PM) right.
Just listen to the actual song for the rythm and tempo.
It is not totally correct, and some small parts may be missing, but you'll
get a basic idea about the riffs played in the song.



Main riff (play 4 times)
        PM  PM     PM  PM     PM  PM     PM
|-------------------------------------------------------|
|-------------------------------------------------------|
|-------------------------------------------------------|
|---------2---2-2----2---2-2----2---2-2----2-------2----|
|-0-0-0-2-2-2-2-2--2-2-2-2-2--2-2-2-2-2--2-2-0-0-1-2----|
|-0-0-0-2-2-2-2-2--2-2-2-2-2--2-2-2-2-2--2-2-0-0-1-2----|


Verse without guitar.
Play Main riff 2 times.
Verse without guitar.
Play Main riff 1 time.



Chorus riff (Play 1 time)
  PM  PM     PM  PM      PM  PM      PM  PM        PM  PM      PM  PM
|-----------------------------------------------------------------------|
|-----------------------------------------------------------------------|
|-----------------------------------------------------------------------|
|---7---7-7----7---7-7-----5---5-5-----4---4-4----9---9-9-----5---5-5---|
|-7-7-7-7-7--7-7-7-7-7---5-5-5-5-5---4-4-4-4-4----9-9-9-9-9---5-5-5-5-5-|
|-7-7-7-7-7--7-7-7-7-7---5-5-5-5-5---4-4-4-4-4----9-9-9-9-9---5-5-5-5-5-|
|
| PM  PM     PM  PM      PM  PM      PM  PM      PM  PM      PM  PM
|----------------------------------------------------------------------|
|----------------------------------------------------------------------|
|----------------------------------------------------------------------|
|---4---4-4----5---4-4-----7---7-7-----7---7-7-----5---5-5-----4---4-4-|
|-4-4-4-4-4--5-5-4-4-4---7-7-7-7-7---7-7-7-7-7---5-5-5-5-5---4-4-4-4-4-|
|-4-4-4-4-4--5-5-4-4-4---7-7-7-7-7---7-7-7-7-7---5-5-5-5-5---4-4-4-4-4-|
|
| PM  PM     PM  PM    PM  PM      PM  PM      PM  PM      PM  PM
|--------------------------------------------------------------------------|
|--------------------------------------------------------------------------|
|--------------------------------------------------------------------------|
|---9---9-9----5---5-----4---4-4-----5---4-4-----7---7-7-----7---7-7-7-8-7-|
|-9-9-9-9-9--5-5-5-5---4-4-4-4-4---5-5-4-4-4---7-7-7-7-7---7-7-7-7-7-7-8-7-|
|-9-9-9-9-9--5-5-5-5---4-4-4-4-4---5-5-4-4-4---7-7-7-7-7---7-7-7-7-7-7-8-7-|


Play Main riff 2 times.
Verse without guitar.
Play Main riff 1 time.
Play Chorus riff 2 times (the first time it gets interrupted at about 3/4).


Quer fazer uma correção nesta cifra?







    Comentários (0) Postar um Comentário

    Nenhum comentário encontrado. Seja o primeiro!