Cifra da música: Adios - Rammstein

Esse cifra de Rammstein já foi acessado por 568 pessoas.

Comente

A música Adios fez muito sucesso quando foi gravada por Rammstein. Quer conhecer a letra dela? Veja a letra de Adios e cante.

Veja também o vídeo da música tocada.


Clean Guitar
                                                                  
E||---------------------------|----------------------------------|
B||---------------------------|----------------------------------|
G||*--------------------------|--10--10--10--10--10/-12--12--12--|
D||*--8--8--8--8--8--8--8--8--|--10--10--10--10--10/-12--12--12--|
A||---8--8--8--8--8--8--8--8--|--8---8---8---8---8/--10--10--10--|
D||---8--8--8--8--8--8--8--8--|----------------------------------|


                                                                       
----------------------------------|----------------------------------||
----------------------------------|----------------------------------||
----------------------------------|---------------------------------*||
--12--12--12--12--12--12--12--12--|--12--12--12--12--12/-10--10/-8--*||
--12--12--12--12--12--12--12--12--|--12--12--12--12--12/-10--10/-8---||
--12--12--12--12--12--12--12--12--|--12--12--12--12--12/-10--10/-8---||

Distorted Riff
                                                                                                    
---------------------------------|----------------------------------|-----------------------------||
---------------------------------|----------------------------------|-----------------------------||
*-----10--7----------------------|----------------------------------|----------------------------*||
*--8--10--7----------------------|----------------------------------|----------------------------*||
---8--8---5--------------3h5-----|----------3h5-------------3h5-----|-----------------------------||
---8---------0-0-0-0-0-0-----0-0-|--0-0-0-0-----0-0-0-0-0-0-----0-0-|--0-0-0-0-0-0-0-0-0-0--------||

Solo  (Transcribed By [email protected])
                                                                              
------------------------------------|---------------------------------------||
--8-10-10--8-10-10--8-10-10--8-6----|--8-10-10--8-10-10--8-10-10-10-8-10----||
---------------------------------7--|------------------------------------7--||
------------------------------------|---------------------------------------||
------------------------------------|---------------------------------------||
------------------------------------|---------------------------------------||


For the chorus just play the clean guitar part with distortion




Quer fazer uma correção nesta cifra?







    Comentários (0) Postar um Comentário

    Nenhum comentário encontrado. Seja o primeiro!