Cifra da música: Louras Geladas - R.P.M.

Esse cifra de R.P.M. já foi acessado por 1086 pessoas.

Comente

Veja também o vídeo da música tocada.


Intro:

Só tem homem feio aí!

e:|-------5------5-------------------------------------------|-
b:|-------5------5-5-----5----------------------------7b(9)--|-
g:|--7b(9)--7b(9)--7b(9)-7b(9)----7b(9)--7---5-----5--7b(9)--|-
D:|---------------------------------------------7------------|-
A:|----------------------------------------------------------|-
E:|----------------------------------------------------------|-

Am Dm Am (F)*

Am          Dm              Am          (F)*
Disfarça e faz que nem me viu, que não me ouviu te chamar
Am       Dm            Am                 (F)*
Desfaz-se assim de mim que nem se faz com qualquer um

        Am
Agora eu sei                                                 
            F               Am               F               |
Passei por cada papel e rastejei, tentando entrar no seu céu |
          Am                                                 |REFRÃO 1
Agora eu sei, sei, sei                                       |
            F              Am             F                  |
Passei por cada papel me embriaguei e acordei num bordel     /

Am          Dm         Am         (F)*
Já sei que um é pouco dois é bom três é demais
Am        Dm        Am          (F)*
Eu fico louco de ciúmes de um outro rapaz

          Am                F             Am          
Agora eu sei....passei por cada papel e rastejei      |
           F                       Am                 |REFRÃO 2
Tentando entrar no seu céu agora eu sei, sei, sei     |
           F               Am        F                |
Passei por cada papel embriaguei e acordei num bordel /

SOLO

E         Am   E             Am
  Na madrugada,  na mesa do bar
E          Am     D         E
  Louras geladas vêm me consolar

 Am        Dm              Am                   (F)*
Qualquer mulher é sempre assim vocês são todas iguais
Am      Dm              Am               (F)*
Nos enlouquecem então se esquecem já não querem mais

         Am                 F         Am                
Agora eu sei..passei por cada papel e rastejei          |
          F                        Am                   |REFRÃO 3
Tentando entrar no seu céu, agora eu sei, sei, sei      |
            F            Am           F                 |
Passei por cada papel embriaguei e acordei num bordel   /


SOLO TECLADO (base: Am Dm Am F)
Mas, muito mais

E        Am    E             Am
  Na madrugada,  na mesa do bar
E          Am     D        E
  Louras geladas vêm me consolar
Am          Dm              Am     (F)*
Passei por cada papel e rastejei
Am          Dm               Am     (F)*
Passei por cada papel me embriaguei e acordei num bordel

REFRÃO 1 (2x)

e-|------|--------------------------------------|-    
b-|-só---|--------------------------------------|-
g-|-na---|--------------0h2p0-------------------|-
D-|-1ª---|---------0h2--------------------------|-
A-|-vez--|-0---3-------------------------3h5----|-
E-|-3p0--|---------------------1---3h5--------3-|-

e-|-------------------------------|-
b-|-------------------------------|-
g-|----------0h2p0----------------|-
D-|-------2--------2p0------------|-
A-|--0h3--------------------------|-
E-|--------------------1----1-1---|-


REFRÕes 2 e 3 (2x)

e-|------|--------------------------------------|-    
b-|-só---|--------------------------------------|-
g-|-na---|--------------0h2p0-------------------|-
D-|-1ª---|---------0h2--------------------------|-
A-|-vez--|-0---3-------------------------3h5----|-
E-|-3p0--|---------------------1---3h5--------3-|-

e-|--------------------------------------|-    
b-|--------------------------------------|-
g-|--------------0h2p0-------------------|-
D-|---------0h2--------------------------|-
A-|-0---3-------------------------3h5----|-
E-|---------------------1---3h5--------3-|-

SOLO:

* = harmônicos naturais
e-|-------------|-    
b-|-----7*------|-
g-|--5*---7*----|- NESSA PARTE FICA
D-|---------7*--|- SÓ NA ALAVANCA
A-|-------------|-
E-|-------------|-

e-|--------------------------------------------------------------|-    
b-|----------10--12b(13)--13p12p10--13p12p10----------10---------|-
g-|--9---12-----------------------------------12b(14)-----12b(14)|-
D-|--------------------------------------------------------------|-
A-|--------------------------------------------------------------|-
E-|--------------------------------------------------------------|-

e-|--------------------------------------------------------------------|-    
b-|-10-------------------------------------------10--13--10------------|-
g-|-----12--9------------------------------------------------12--9--12-|-
D-|------------12-10----------------------10-12------------------------|-
A-|------------------12-10-12-10----10-12------------------------------|-
E-|------------------------------13------------------------------------|-

e-|-----------------------------------15---------15------------------------|-    
b-|-10-13-10---------10-12-13-15b(17)----15b(17)----15b(17)-15b(17)-15b(17)|-
g-|----------12-9-12-------------------------------------------------------|-
D-|------------------------------------------------------------------------|-
A-|------------------------------------------------------------------------|-
E-|------------------------------------------------------------------------|-

###################################
#                                 #
#  (F)*:                          #
#  As vezes faz isso:             #
#  b-|----7b(9)------------       #
#  g-|----7b(9)------------       #
#                                 #
#  As vezes faz isso:             #
#  b-|----7b(9)b7b(9)b7----       #
#  g-|----7b(9)b7b(9)b7----       #
#                                 #
#  As vezes toca o acorde normal  #
#                                 #
###################################

ACORDES:
Am   (xxx555)
Dm   (xxx765)
(F)* (xxx565)
F    (133211)




Quer fazer uma correção nesta cifra?







    Comentários (0) Postar um Comentário

    Nenhum comentário encontrado. Seja o primeiro!