Cifra da música: Juvenilia - R.P.M.

Esse cifra de R.P.M. já foi acessado por 552 pessoas.

Comente

Veja também o vídeo da música tocada.


Tom: Gm 
Intr.: Gm  F Dm 

Gm          F           Dm   F      Dm F 
Sinto um imenso vazio e o Brasil   que 
Gm             F           Dm  F        Dm F    Gm 
Herda o costume servil,  não serviu  pra mim 
        Cm Gm   Cm 
Juventude aventura e medo 
Gm     Cm Gm    Cm                            Gm 
Desde cedo encerrarado em grades de aço 

          F            Dm F    Dm F Gm 
E um pedaço do meu coração é  teu 
           F                 Dm    F      Dm    F   Gm 
Destroçado com as mãos, pelas mãos de Deus 
        Cm    Gm        Cm 
E as imagens, transmissões divinas 
Gm   Cm  Gm        Cm                    Gm 
E o cinismo e o protestantimos europeu 

(Gm    F Dm F  Dm F Gm) 
(Gm  Cm  Gm  Cm) 

Solo:
e|------------8--8-10--10---11--10--------------------8---8--------10---------------|
b|-8--10--11-------------------------8--10--11---11-----------11--------------------|
g|----------------------------------------------------------------------------------|
d|----------------------------------------------------------------------------------|
a|----------------------------------------------------------------------------------|
E|----------------------------------------------------------------------------------|

e|------------8--8-10--10---11--10--11--10--13--11--13--15--15---15---15------------|
b|-8--10--11------------------------------------------------------------------------|
g|----------------------------------------------------------------------------------|
d|----------------------------------------------------------------------------------|
a|----------------------------------------------------------------------------------|
E|----------------------------------------------------------------------------------|


(Gm  F Dm) 

Gm           F           Dm F         Dm F Gm 
Parte o primeiro avião   eu não vou voltar 
              F            Dm  F      Dm F  Gm 
E quem vem pra ficar, pra cuidar de ti, 
        Cm  Gm      Cm 
Terra linda sofre ainda a vinda 
Gm  Cm  Gm     Cm                 Gm 
De piratas mercenários sem direção, 

Gm F                Dm F              Dm 
Eu até sei quem são é eu sei, eu sei 
F Gm             F           Dm F         Dm F Gm 
Você sempre faz confusão diz que não e  vem, 
             Cm    Gm       Cm 
Vem chorando, vem pedir desculpas, 
Gm       Cm    Gm   Cm                       Gm   (Gm  F Dm) 
Vem sangrando dividindo a culpa entre nós.


Quer fazer uma correção nesta cifra?







    Comentários (0) Postar um Comentário

    Nenhum comentário encontrado. Seja o primeiro!