Cifra da música: Orvalho - Quatro Ases e um Coringa

Esse cifra de Quatro Ases e um Coringa já foi acessado por 484 pessoas.

Comente

A música Orvalho fez muito sucesso quando foi gravada por Quatro Ases e um Coringa. Quer conhecer as demais músicas? Conheça as letras das músicas gravadas por Quatro Ases e um Coringa e aproveite.


(A D)
Cantei, em ovalho me criei
Todo amor do mundo usei
Só pra te encantar
Eu sei, que ali em frente ao mar
A alegria há de encantar o amanhacer

(A D)
Onde não há dor, eu sei
Que não há dor, eu sei
Onde não há dor, eu sei
Que não há dor, eu sei
Que não há

E|----9-10-12-----------------------------------
B|-10---------10-10h12p10-----10----------------
G|------------------------7-6-----------9h11-9--
D|-------------------------------9h11-9---------
A|----------------------------------------------
E|----------------------------------------------

E|------------9-10-12-----------------------9-9h10p9----9-9h10p9-----|--12-----
B|---------10---------10-10h12p10-----10-------------10----------10--|-----10--
G|----9 11------------------------7-6--------------------------------|---------
D|-11----------------------------------------------------------------|---------
A|-------------------------------------------------------------------|---------
E|-------------------------------------------------------------------|---------

Quer fazer uma correção nesta cifra?








    Comentários (0) Postar um Comentário

    Nenhum comentário encontrado. Seja o primeiro!