Cifra da música: Botar Um - Quatro Ases e um Coringa

Esse cifra de Quatro Ases e um Coringa já foi acessado por 521 pessoas.

Comente

A música Botar Um fez muito sucesso quando foi gravada por Quatro Ases e um Coringa. Quer conhecer as demais músicas? Conheça as letras das músicas gravadas por Quatro Ases e um Coringa e aproveite.


                                    (Riff)
Baixo: e ----------------------------------------------------------
       B ----------------------------------------------------------
       G ----------------------------------------------------------
       D ---------------------------------------------------------- {       }  
       A ----------7-5-----------7-5-----------7-5---3-3---3-2----- {Repetir}
       E -3-5--5-5-----3-5--5-5------3-5--5-5-----5-5---5-5----5--- {       }
                          
                                  (Riff)
             
Guitarra: e -------------------------------------------------------
          B -------------------------------------------------------
          G ----------9-7---------9-7---------9-7----5-5-----5-4--- {       } 
          D -5-7--7-7----5-7--7-7----5-7--7-7----7-7-----7-7-----7- {Repetir}
          A ------------------------------------------------------- {       } 
          E -------------------------------------------------------            

Am            Dm     Am         Dm
Eu quero botar um,   Vamos botar um,
     Am        Dm       Am
me deixe botar um sentimento no seu coração.
Dm                Am    
Você me destrói e não se dá conta você
Dm                        Am
me queimou até a última ponta,
Dm                   Am
você já tem tudo e ainda quer mais 
     Dm                 Am
todo amor do mundo não me satisfaz
REFRÃO 
    Dm                Am         
Sua vida é vazia sem sonho e canção
     Dm              Am          
não gosta de reggae adão nem morrão.
   Dm               Am
Acorda pra vida e venha dançar 
 Dm                       Am
abra sua mente pro que eu vou te falar.
   
 Final: Repete Fiff da guitarra..
 
  
   
                               The Reggae Is Music 
                                  Legalize it






Quer fazer uma correção nesta cifra?








    Comentários (0) Postar um Comentário

    Nenhum comentário encontrado. Seja o primeiro!