Cifra da música: Posso ouvir (Tab de guitarra) - PG - Gospel

Esse cifra de PG - Gospel já foi acessado por 1583 pessoas.

Comente

Legenda 
 = slide ascendente 
/ = slide descendente 
~ = vibrato 
^ = subida do full 
v = descida do full 
 
 
------------------------------------------------------------------ 
------------------------------------------------------------------ 
---3~--57/5~------------3~-3-5-7-9-10-9~------------------------ 
---------------5~-3-2-3------------------7-8-7-810------------- 
-----------------------------------------------------8-8---------- 
------------------------------------------------------------------ 
 
                                     full   full full    full 
------------------------------------------------------------------ 
-----------------10-11-10-11/13------10^v-8-10^10^v-8-10-10^-8~--- 
----------10-10----------------10-10------------------------------ 
7-8-7-810-------------------------------------------------------- 
------------------------------------------------------------------ 
------------------------------------------------------------------ 
 
 
pattern em cima de Bm7(b5)  
------------------------------------------------------------------ 
------------------------------------------------------------------ 
---------------------------------------------------------------7-- 
------------------------------------7-----7-9----7-9-10-7-9-10---- 
--------7------7-8----7-8-10-7-8-10---8-10----10------------------ 
-7-8-10---8-10-----10--------------------------------------------- 
 
------------------------------------------8-------8-10----8-10-12~ 
--------------------------8-10----8-10-12---10-12------12--------- 
-----7-9----7-9-10-7-9-10------10--------------------------------- 
9-10-----10------------------------------------------------------- 
------------------------------------------------------------------ 
------------------------------------------------------------------

Quer fazer uma correção nesta cifra?








    Comentários (0) Postar um Comentário

    Nenhum comentário encontrado. Seja o primeiro!