Cifra da música: Meus dias (Tab de Guitarra) - PG - Gospel

Esse cifra de PG - Gospel já foi acessado por 1487 pessoas.

Comente

e|--------------------------15-13-12-13-15-15/17-15| 
B|-------------------------------------------------| 
G|-------9---9/10--9-10-12-------------------------| 
D|-/7--7---7---------------------------------------| 
A|-------------------------------------------------| 
E|-------------------------------------------------| 
 
e|-------------------------------------------------| 
B|-------------------------------------------------| 
G|--------------------------------7----------------| 
D|-----7h10---------------------7------------------| 
A|-8---------10p8-10p8-------10--------------------| 
E|----------------------8-10-----------------------|

Quer fazer uma correção nesta cifra?








    Comentários (0) Postar um Comentário

    Nenhum comentário encontrado. Seja o primeiro!