Cifra da música: Apenas um olhar - Nx Zero

Esse cifra de Nx Zero já foi acessado por 1164 pessoas.

Comente

A música Apenas um olhar fez muito sucesso quando foi gravada por Nx Zero. Quer conhecer a letra dela? Veja a letra de Apenas um olhar e cante.

Veja também o vídeo da música tocada.


Tom: E

Intro:

apenas um olhar mistério...

e|----------------
B|--5--5--5--5--5-
G|--4--4--4--4--4-
D|--2-----2--2--2-
A|--0--2--4-------
E|-----------4--4-

quando entra a bateria:

B|-9--7--9--7--9--7--9--7--9--7--9--7--9--7--9--7

solo: C#m F# G# A G# A G# F# E D# E C#  base:(C# A B)
e|--------------------------------------------------------------------------------------
B|--------------------------------------------------------------------------------------
G|--6-6--11--13--14--13--14--13--11-9--11--9--8--9----6-6--11-13--14--13--14-14--13-13--
D|--x-x--x---x---x---x---x---x---x--x--x---x--x--x----x-x--x--x---x---x---x--x---x--x---
A|--4-4--9---11--12--11--12--11--9--7--9---7--6--7----4-4--9--11--12--11--12-12--11-11--
E|--------------------------------------------------------------------------------------

base: C#m A B 
e|---------------------------------
B|-5-0-4-0-2-0-4-0-5-0-4-0-2-0-----
G|---------------------------------
E|--------------------------------- 4x
A|---------------------------------
E|---------------------------------

C#m5                    A5                 B5
Porque que você esta fugindo de mim com nossas fotos rasgadas?
C#m5             A5     B5
Se for pra ser assim, será.

B|-9-9-10---9-9--9-9-10-9-9--12-12--9--9-
G|--9-9----9-9----9-9----9-9--9--9--9--9-
Apenas um olhar, mistério...
confuso de entender
Do que me vale ser sincero se o destino me afasta de você ?!

C#m5          A5      E5             B5         
Agora é pra valer, esqueça tudo que eu disse para você!
C#m5          A5      E5             B5
Já não tem sido fácil...    uô uô

Guitarra 1 Gee Rocha
e|--------------------
B|--------------------
G|--6-6--11-8-9--4-4--
D|--x-x--x--x-x--x-x--
A|--4-4--9--6-7--2-2--
E|--------------------

Guitarra 2 Fi ricardo
e|-------------------------
B|-------------------------
G|--6--6--8--4-------------
D|--x--x--x--x--4--4--6--7-
A|--4--4--6--2--4--4--6--7-
E|--------------2--2--4--5-

Só o baixo:
Apenas em um olhar espero desvendar os seus mistérios, tentar
entender eu mesmo, tentar entender... você!

C#m5          A5      E5             B5         
Agora é pra valer, esqueça tudo que eu disse para voce!
C#m5          A5      E5             B5
Já não tem sido fácil...    uô uô uô uôo


Quer fazer uma correção nesta cifra?







    Comentários (0) Postar um Comentário

    Nenhum comentário encontrado. Seja o primeiro!