Cifra da música: A Maré - Nx Zero

Esse cifra de Nx Zero já foi acessado por 1012 pessoas.

Comente

A música A Maré fez muito sucesso quando foi gravada por Nx Zero. Quer conhecer as demais músicas? Conheça as letras das músicas gravadas por Nx Zero e aproveite.

Veja também o vídeo da música tocada.


Tom: G
		
Intro:  Em Bm C


E|-----------5------------------------------------|
B|---------2-----------5---------2----------2-----|
G|-------2-----------2-----------2----------------|
D|-----4-----------2-----------4----------4-------|
A|---------------4-----------5----------5---------|
E|------------------------------------------------|


  Em                        Bm
  todo dia ela chega em casa e se pergunta
       C
  o que é que eu to fazendo aqui?
  Em                        Bm
  todo dia chega do trabalho  olha pro lado
       C
  sem saber pra onde ir...
       Em                    Bm
  é que a vida que leva não é a mesma
       C
  que planejou quando era feliz
  Em                        Bm
  todo dia isso se repete  ela procura
       C
  um motivo pra sorrir
  C         Bm
  Uô uô ôô  uô uô ôô

       C           D5                Em    Bm
  com o tempo a vida faz crescer e aceitar
            C          D5          Em    Bm
  que de repente tudo muda e troca de lugar
       C           D5
  não se entregue e não deixe a maré te levar
      Em                Bm
  só não deixe a maré te levar
    C                D5          Em        Bm
  com o tempo a vida faz crescer e aceitar

Em  Bm  C
Uhoooooou

  Em                 Bm
Todo dia ele toma um gole
              C
Pra esquecer tudo o que deixou pra trás
  Em               Bm
Todo dia ele se arrepende de não ter
 C
Feito o que era capaz

Em                           Bm
Vê que a vida que leva não é a mesma
     C
E essa rotina já não satisfaz
  Em                  Bm
Todo dia isso se repete e ele procura
    C
Encontrar a sua paz

       C         D5                Em     Bm
  com o tempo a vida faz crescer e aceitar
            C          D5          Em    Bm
  que de repente tudo muda e troca de lugar
       C           D5
  não se entregue e não deixe a maré te levar
      Em                Bm
  só não deixe a maré te levar
    C                  D5        Em        Bm
  com o tempo a vida faz crescer e aceitar
  Em
  É!

Solo: ( Em Bm C )2X D5


E|--------------------------------------------|-------------------------------------------|
B|--------------------------------------------|---------------------------13b-13-11-9-7-5-|
G|-14p13-11-13----13h14h13-11-9-6h7-7-6/4-4/6 |14p13--11--13--16/15--12-13----------------|
D|--------------------------------------------|-------------------------------------------|
A|--------------------------------------------|-------------------------------------------|
E|--------------------------------------------|-------------------------------------------|


    C           D5                Em    Bm
  com o tempo a vida faz crescer e aceitar
            C          D5          Em    Bm
  que de repente tudo muda e troca de lugar
             C                      D5
  não se entregue e não deixe a maré te levar
      Em                  Bm
  só não deixe a maré te levar
    C                D5          Em        Bm
  com o tempo a vida faz crescer e aceitar


Quer fazer uma correção nesta cifra?







    Comentários (0) Postar um Comentário

    Nenhum comentário encontrado. Seja o primeiro!