Cifra da música: Heavy Metal - Mudhoney

Esse cifra de Mudhoney já foi acessado por 372 pessoas.

Comente

A música Heavy Metal fez muito sucesso quando foi gravada por Mudhoney. Quer conhecer as demais músicas? Conheça as letras das músicas gravadas por Mudhoney e aproveite.

Veja também o vídeo da música tocada.


 INTRO: 

   C#|---------------------------------------------------------------------|
   G#|---------------------------------------------------------------------|
    E|---------------------------------------------------------------------|
    B|---------------------------------------------------------------------|
   F#|--0--0-----0--0-----0--0-----0--0-----0--0-----0--0-----0--0-----0--0|
    B|--0--0-----0--0-----0--0-----0--0-----0--0-----0--0-----0--0-----0--0|

     Cont..  - 0:07

   C#|--------------------|
   G#|---------)--------)-|
    E|---------9---------9--|
    B|---------)--------)-|
   F#|--0--0--7--0--0--7--|
    B|--0--0-----0--0-----|


     MAIN RIFF:
 
             
   C#|------|--------------------------------|   
   G#|------|--------------------------------|
    E|------|-------------------------------------4-| 
    B|------|-----------------------------------2-|
   F#|--2-4-3-2-3-4-2/42-x3---|----------1-|
    B|--2-4-3-2-3-4-2/42----.....|--0-8--|


     VERSE-BRIDGE RIFF:
       
             
   C#|------|----------------|-------------------------------|   
   G#|------|----------------|/5-5-5-5-5-5-5-5-5-5-5-5-5-5-5|
    E|------|----------------|/9-9-9-9-9-9-9-9-9-9-9-9-9-9-9|
    B|------|----------------|
   F#|--0-2-|-0-2-3-0-3-2----|
    B|--0-2-|-0-2-3-0-3-2----|

     FILL RIFF:

                           
   C#|--------------|--------|
   G#|--------------|--------|
    E|--------------|--------|
    B|--------------|--------|
   F#|--7-8-6-5-4-3-|--3-2---|
    B|--7-8-6-5-4-3-|--3-2---|



   C#|--------------|
   G#|--------------|
    E|--------------|
    B|--------------|
   F#|-x--xxxx--3-2-|
    B|-x--xxxx--3-2-|


     INTERLUDE RIFF:

   C#|------------------------------|
   G#|------------------------------|
    E|------------------------------|
    B|------------------------------|
   F#|------------------------------|
    B|--0-0--6-5--6-5--6-5--6-5--6-5|

 
   C#|------------------------------|
   G#|------------------------------|
    E|------------------------------|
    B|------------------------------|
   F#|--0-0--6-5--6-5--6-5--6-5--6-5|
    B|--0-0--6-5--6-5--6-5--6-5--6-5|

 CHORUS END

[email protected]




Quer fazer uma correção nesta cifra?







    Comentários (0) Postar um Comentário

    Nenhum comentário encontrado. Seja o primeiro!