Cifra da música: I Want to Know - Living Colour

Esse cifra de Living Colour já foi acessado por 463 pessoas.

Comente

A música I Want to Know fez muito sucesso quando foi gravada por Living Colour. Quer conhecer a letra dela? Veja a letra de I Want to Know e cante.


( V. Reid)

e-----------------------------------------------------------------------------------3------3--3------------
B-----------------------------------------------------------------------------------3-5--3---3--3-------------
G--------------5------------4--2--4--2--------------------5---------4--2-------------------4-----------------------
D------2--5--------------------------------5---------2--5-------------------------------------------------------
A--3----------------2--3---------------------2--3-------------2--3------------------------------------------------
E-----------------------------------------------------------------------------------------------------------


e---------------------------5-----------------------------------------
B--6-----6-----5--------7------------------------------------------
G--5-----5----4--------7-------------------------------------
D---7----7-----5-------7---------------------------------------
A---------------------------------------------------------------
E------------------------------------------------------------

Baby you stole my heart
I don't know what to do
Got one problem on my mind
Do you feel the way I do?

I want to know
Give me a sign girl
Open your heart and tell me that you're mine
When you walk down the street
The cats don't even make a noise
They worship at your feet
Acting like little boys

I'm standing in the shadows baby

I got one thing that's on my mind
Gonna make you love me baby
If it takes the rest of my life

I want to know
Give me a sign girl
Open your heart and tell me that you're mine

It takes a lot of guts to show you how I feel
About you
Just say the words and let me know it's real
Or is it just a dream...

I'm very patient baby
And I've got a lot of time
I can see a clear horizon
You and me standing side by side

I want know...

Quer fazer uma correção nesta cifra?







    Comentários (0) Postar um Comentário

    Nenhum comentário encontrado. Seja o primeiro!