Cifra da música: Cult of Personalit - Living Colour

Esse cifra de Living Colour já foi acessado por 526 pessoas.

Comente

A música Cult of Personalit fez muito sucesso quando foi gravada por Living Colour. Quer conhecer as demais músicas? Conheça as letras das músicas gravadas por Living Colour e aproveite.

Veja também o vídeo da música tocada.


(V Reid, C. Glover, W. Calhoun, M. Skillings)

e----------------------------------------------------------------------------------
B----------------------------------------------------------------------------------
G-----------------------------------------------------------------------------------
D---3-2-----2----3-2----2----3--2-----2----3--2----2--2-------------
A----------------------------------------------------------------------------------
E-3------3------3-------3------3------3-----3--------3--------------------

e----------------------------------------------------------------------------------
B----------------------------------------------------------------------------------
G-----------------------------------------------------------------------------------
D---3-2-----2----3-2----2----3--2-----2----3--2----2--2-------------
A----------------------------------------------------------------------------------
E-3------3------3-------3------3------3-----3--------3--------------------

e------------------------------------------------------------------------------
B-----------------------------------------------------------------------------
G--------------------------------------------------------------------------------
D----3--2----5-3----7-3--------------3--2----2-----3--2---2-------------
A---------------------5-------5--------------------------------------------------
E-3--------3--------------------8-7-3---------3----3---------3--------------

Look into my eyes, what do you see?
Cult of Personality
I know your anger, I know your dreams
I've been everything you want to be
I'm the Cult of Personality
Like Mussolini and Kennedy
I'm the Cult of Personality
        Cult of Personality
        Cult of Personality

Neon lights, A Nobel Price
The mirror speaks, the reflection lies
You don't have to follow me
Only you can set me free
I sell the things you need to be
I'm the smiling face on your T.V.
I'm the Cult of Personality
I exploit you still you love me

I tell you one and one makes three
I'm the Cult of Personality
Like Joseph Stalin and Gandi
I'm the Cult of Personality
        Cult of Personality
        Cult of Personality

Neon lights a Nobel Prize
A leader speaks, that leader dies
You don't have to follow me
Only you can set you free

You gave me fortune
You gave me fame
You me power in your God's name
I'm every person you need to be
I'm the Cult of Personality

(Falta muita coisa nessa música mas com esse riff da pra tocar praticamente ela toda )



Quer fazer uma correção nesta cifra?







    Comentários (0) Postar um Comentário

    Nenhum comentário encontrado. Seja o primeiro!