Cifra da música: Vinte E Nove - Legião Urbana

Esse cifra de Legião Urbana já foi acessado por 2259 pessoas.

1.00 / 5 - 1
Comente

A música Vinte E Nove fez muito sucesso quando foi gravada por Legião Urbana. Quer conhecer a letra dela? Veja a letra de Vinte E Nove e cante.

Veja também o vídeo da música tocada.


Intro: G Am7 D Cadd9 G Am7 D Cadd9

Riff 1
E|-3---0-----------------2---0---------------2-3---0----------------2-2-3-2-------------|
B|-3-3---3---------------3-3---3---------------3-3---3--------------3-------------------|
G|-0---------------------2---------------------0--------------------2-------------------|
D|-0------------------2--0---------------------0-----------------2--0-----------------2-|
A|-2--------0-2-3-2-0-------------0-2-3-2-0----2-------0-2-3-2-0------------0-2-3-2-0---|
E|-3-------------------------------------------3----------------------------------------|

      G                Cadd9   D
Perdi vinte em vinte e nove amizades
    G            Cadd9           D
Por conta de uma pedra em minhas mãos 
         G/B                        Am7
Me embriaguei morrendo vinte e nove vezes
           G         F7+       Em7  C9
Estou aprendendo a viver sem você
        G/B         Am7      D
(Já que você não me quer mais.)

Riff 2
E|------------|
B|-3s5--3s5-3-|
G|------------|
D|-3s5--3s5-4-|
A|------------|
E|------------|

       G            Cadd9        D
Passei vinte e nove meses n'um navio
    G          Cadd9      D
E vinte e nove dias na prisão
              G/B                    Am7
E aos vinte e nove, com retorno de saturno
    G      F7+     Em7
Decidi começar a viver.

         C9               G/B
Quando você deixou de me amar
               Am7  D Riff 2                  G  Am7 D Cadd9  Riff 1
Aprendi a perdoar             e a pedir perdão.

   G                      Am7
(E vinte nove anjos me saudaram
       D                       Cadd9   
E tive vinte nove amigos outra vez.)

(G Am7 D Cadd9)2x (A A4 E D)2x

Final
E|-------------------------------------------|
B|-2-2-------------------------------------2-|
G|-2---2---------------1-1---------------1-2-|2x
D|-2----------------4--2---2---------------2-|
A|--------2-4-5-4-2----2------2-4-5-4-2------|
E|-------------------------------------------|

E|-0-0-0-0-0-0-0-0-0-0-0-0-0-0---------------5-5-5-5-5---0-|
B|-2-2-2-2-2-0-2-3-3-3-3-3-2-3-5-5-5-5-5-3-2-7-7-7-7-7-7-2-|
G|-2-2-2-2-2-2-2-2-2-2-2-2-2-2-2-2-2-2-2-2-2-7-7-7-7-6-4-2-|
D|-2-2-2-2-2-2-2-2-2-2-2-2-2-2-2-2-2-2-2-2-2-0-0-0-0-0-4-2-|
A|---------------------------------------------------------|
E|---------------------------------------------------------|

Acordes.
G     ->(320033)
Am7   ->(x02010)
D     ->(xx0232)
Cadd9 ->(x32033)
G/B   ->(020033)
F7+   ->(x03210)
Em7   ->(x22030)
C9    ->(x32030)
A     ->(x02220)
A4    ->(x02230)
E     ->(022100)

Trancrita por: Gabriel Ysllu Chagas
[email protected]





Quer fazer uma correção nesta cifra?







    Comentários (0) Postar um Comentário

    Nenhum comentário encontrado. Seja o primeiro!