Cifra da música: Que País É Este - Legião Urbana

Esse cifra de Legião Urbana já foi acessado por 3283 pessoas.

3.67 / 5 - 3
Comente

A música Que País É Este fez muito sucesso quando foi gravada por Legião Urbana. Quer conhecer a letra dela? Veja a letra de Que País É Este e cante.

Veja também o vídeo da música tocada.


Versão 1
-======-

Tom: Em
Introd.: (Em,C e D)
   C/ efeito            Guitarra 2
E|-7~~-12~~-17~~-|-(7)-|-7fb---------------------------------------------------------------------------|
B|---------------|-(5)-|-------8fb---------------------------------------------------------------------|
G|---------------|-----|-------------9p7-9p7-9p7-9p7-9p7-----------------------------------------------|
D|---------------|-----|---------------------------------9-----7p5-7p5-7p5-7p5-7p5-------7p5-7p5-7p5---|
A|---------------|-----|-----------------------------------------------------------7-----------------7-|
E|---------------|-----|-------------------------------------------------------------------------------|

Violão: Depois da guitarra 2 começa o violão.
SOLO:
E|---7---7---7----7----5----3---3---3----3-----5----|
B|-5---5---5----5---3------5---5---5----5----3------|
G|--------------------------------------------------|
D|--------------------------------------------------|
A|--------------------------------------------------|
E|--------------------------------------------------|
(2x)
OBS: Enquanto isso acompanha a Introdução
(Em C D)
Nas favelas, no Senado
Sujeira pra todo lado
Ninguém respeita a Constituicão
Mas todos acreditam no futuro da nação
 
(Em C  D)
Que país é este |4x

Violão:
SOLO:
E|---7---7---7----7----5----3---3---3----3--5------|
B|-5---5---5----5---3----5---5---5----5---3--------|
G|-------------------------------------------------|
D|-------------------------------------------------|
A|-------------------------------------------------|
E|-------------------------------------------------| (2x)
OBS: Enquanto isso acompanha a Introdução
(Em C D)
No Amazonas, no Araguaia iaia, na Baixada Fluminense
Mato Grosso, nas Minas Gerais e no Nordeste tudo em paz
Na morte eu descanso mas o sangue anda solto
Manchando os papéis, documentos fiéis
Ao descanso do patrão

(Em C D)
Que país é este |4x

Violão:
SOLO:
E|---7---7---7----7---5----3---3---3----3---5------|
B|-5---5---5----5---3---5---5---5----5---3---------|
G|-------------------------------------------------|
D|-------------------------------------------------|
A|-------------------------------------------------|
E|-------------------------------------------------|
(2x)
(O solo acompanha durante todo o terceiro verso, apenas solo e introdução)
Terceiro mundo se for
Piada no exterior
Mas o Brasil vai ficar rico
Vamos faturar um milhão
Quando vendermos todas as almas
Dos nossos índios num leilão

Acordes:
E5 ->(x799xx) 
C5 ->(x355xx)
D5 ->(x577xx)

trancrita por Gabriel Ysllu Chagas.

_______________________________________________________
Contribuição: ([email protected])
Correção: THAIANNA MICAELA ([email protected])
Correção: Fabrício W. Garcia ([email protected])
Correção: João Guilherme Carvalho Santiago ([email protected])
Correção: Alexandre Soares Ramos ([email protected])
Correção: Luci Beatriz Zanini Vargas ([email protected])
Correção: Roberto Freire de Morais ([email protected])
Correção: Rodrigo Melo ([email protected]) 
Correção: Marco Antônio ([email protected])




Versão 2
-======-

(Am F G)
Nas favelas, no Senado
Sujeira pra todo lado
Ninguém respeita a Constituicão
Mas todos acreditam no futuro da nação
 
(Am F G)
Que país é este |4x

Violão:
SOLO:
SOLO:
E|---7---7---7---7-----5---3---3---3---3----5----|
B|-5---5---5---5-----3---5---5---5---1---3-------|
G|-----------------------------------------------|
D|-----------------------------------------------|
A|-----------------------------------------------|
E|-----------------------------------------------|
(2x)
OBS: Enquanto isso acompanha a Introdução(Am F G)
No Amazonas, no Araguaia iaia, na Baixada Fluminense
Mato Grosso, nas Minas Gerais e no Nordeste tudo em paz
Na morte eu descanso mas o sangue anda solto
Manchando os papéis, documentos fiéis
Ao descanso do patrão
(Am F G)
Que país é este |4x

Violão:
SOLO:
SOLO:
E|---7---7---7---7-----5---3---3---3---3----5----|
B|-5---5---5---5-----3---5---5---5---1---3-------|
G|-----------------------------------------------|
D|-----------------------------------------------|
A|-----------------------------------------------|
E|-----------------------------------------------|(2x)
OBS: Enquanto isso acompanha a Introdução
 
(Am F G)
Terceiro mundo se for
Piada no exterior
Mas o Brasil vai ficar rico
Vamos faturar um milhão
Quando vendermos todas as almas
Dos nossos índios num leilão
(Am F G)
Que país é este |4x

Acorde G com pestana

__________________________________________________
Contribuição: Witan Santana Rodrigues ([email protected])
Correção: Guilherme de Oliveira Cezario ([email protected])
Correção: Gabriel Rodrigo Frones ([email protected])
Correção: vinicios costa oliveira ([email protected])
Correção: Marco Antônio ([email protected])


Quer fazer uma correção nesta cifra?







    Comentários (0) Postar um Comentário

    Nenhum comentário encontrado. Seja o primeiro!