Cifra da música: Quando Você Voltar - Legião Urbana

Esse cifra de Legião Urbana já foi acessado por 2170 pessoas.

1.00 / 5 - 1
Comente

A música Quando Você Voltar fez muito sucesso quando foi gravada por Legião Urbana. Quer conhecer a letra dela? Veja a letra de Quando Você Voltar e cante.

Veja também o vídeo da música tocada.


Tom: G
Intr. G F C G F C

teclado da intr.
E|---------------------------------------------------|
B|---------------------------------------------------|
G|---------------------------------------------------|
D|---------5-7-7-7-5~-------------5-7-7-7-5----------|
A|-5-5~--7------------5s8-7-5~--7-----------5s8-7-5~-|
E|---------------------------------------------------|

G         C           G
Vai, se você precisa ir
    D   	           Am
Não quero mais brigar esta noite
	    C
Nossas acusações infantis
     G                  C
E palavras mordazes que machucam tanto
G		  C
  Não vão levar a nada, como sempre
G               D               C   
Vai, clareia um pouco a cabeça
Am     Bm  C	    D         G
Já que vo..cê não quer conversar.
	    Bm    C       D      G
Já brigamos tanto mas não vale a pena
			   Bm
Vou ficar aqui, com um bom livro ou com a TV
	 C	         	   D
Sei que existe alguma coisa incomodando você
      Bm               Em    C	
Meu amor, cuidado na estrada
  Am        Bm      C
E quando você vol..tar
 D            G 
Tranque o portão
	   Bm
Feche as janelas
         C
Apague a luz
   D		C  G  	(Introdução)
E saiba que te amo

Viola do final.
E|---------------12-10-12-10-12-10-|
B|-12-10-12-10---------------------|
G|---------------------------------|
D|---------------------------------|
A|---------------------------------|
E|---------------------------------|

(Cifras: Daniel Lucas)
(tablatura: Gabriel Ysllu Chagas)
([email protected])




Quer fazer uma correção nesta cifra?







    Comentários (0) Postar um Comentário

    Nenhum comentário encontrado. Seja o primeiro!