Cifra da música: O Mundo Anda Tão Complicado - Legião Urbana

Esse cifra de Legião Urbana já foi acessado por 3026 pessoas.

Comente

A música O Mundo Anda Tão Complicado fez muito sucesso quando foi gravada por Legião Urbana. Quer conhecer a letra dela? Veja a letra de O Mundo Anda Tão Complicado e cante.

Veja também o vídeo da música tocada.


Tom: C
Intr.: C Dm G Dm G F

           C
 Gosto de ver você dormindo
            Dm         C        G
 Que nem criança com a boca aberta
       Dm         C      G
 O telefone chega sexta-feira
          F
 Aperto o passo por causa da garoa
      C
 Me empresta um par de meias
         Dm          C        G
 A gente chega na sessão das dez
      Dm    C            G
 Hoje eu acordo ao meio-dia
    F              C
 Amanhã é a sua vez

 
     C       Dm         G        C
 Vem cá, meu bem, que é bom lhe ver
         Dm         G
 O mundo anda tão complicado
             C                Dm  G  C
 Que hoje eu quero fazer tudo por você.
  
             C
 Temos que consertar o despertador
       Dm           C     G
 E separar todas as ferramentas
     Dm      C        G
 A mudança grande chegou
         F                           C
 Com o fog...o e a geladeira e a televisão
                          Dm
 Não precisamos dormir no chão
 C          G         Dm       C      G
 Até que é bom, mas a cama chegou na terça
      F                  C
 E na quinta chegou o som

        Dm        G              C
 Sempre faço mil coisas ao mesmo tempo
             Dm           G              C
 E até que é fácil acostumar-se com meu jeito
                       Dm
 Agora que temos nossa casa
     G                   C
 é a chave que sempre esqueço

         C
 Vamos chamar nossos amigos
         Dm      C    G
 A gente faz uma feijoada
   Dm             C     G
 Esquece um pouco do trabalho
    F
 E fica de bate-papo
           C
 Temos a semana inteira pela frente
         Dm          C       G
 Você me conta como foi seu dia
           Dm         C       G
 E a gente diz um p'ro outro:
                   F            C
 - Estou com sono, vamos dormir!

     C       Dm         G        C
 Vem cá, meu bem, que é bom lhe ver
         Dm         G
 O mundo anda tão complicado
             C                Dm  G  C
 Que hoje eu quero fazer tudo por você.


          C
 Quero ouvir uma canção de amor
          Dm         C    G
 Que fale da minha situação
            Dm         C            G
 De quem deixou a segurança de seu mundo
      F
 Por amor
      C
 Por amor


Tablatura:

Guitarra: Este solo é o da introdução e é tocado durante a música toda vez em que os
acordes(C,Dm,G,Dm,G,F)aparecem.
E|-------------------------------------3------------------3-------------------------|
B|---5---5---5---5---5----3---5----3-----3----3---5---3-----3-----1---1---1---3---1-|
G|----------------------------------------------------------------------------------|
D|-5---5---5---5---5----3---5----3---3------3---5---3---3-------3---3---3---3---3---|
A|----------------------------------------------------------------------------------|
E|----------------------------------------------------------------------------------|

   C       F        G       C        C       F       G       Am      Dm      G       C 
E|-3...----5...-----7...----3-3-3----3...----5...----7...----5...----5...----7...----3...-|
B|-5...----6...-----8...----5-5-5----5...----6...----8...----5...----6...----8...----5...-|
G|-5...----5...-----7...----5-5-5----5...----5...----7...----5...----7...----7...----5...-|
D|----------------------------------------------------------------------------------------|
A|----------------------------------------------------------------------------------------|
E|----------------------------------------------------------------------------------------|

Solo:
E|---------------------------------------------------|
B|--5--5-5-5--5-5--3--3-3-----6--6-6-6--6-6--5--5-5--|
G|---------------------------------------------------|
D|--5--5-5-5--5-5--3--3-3-----6--6-6-6--6-6--5--5-5--|
A|---------------------------------------------------|
E|---------------------------------------------------|

Final:
E|-------------------------------------3------------------3---------------------------3---|
B|---5---5---5---5---5----3---5----3-----3----3---5---3-----3-----1---1---1---3---1---5---|
G|------------------------------------------------------------------------------------5---|
D|-5---5---5---5---5----3---5----3---3------3---5---3---3-------3---3---3---3---3---------|
A|----------------------------------------------------------------------------------------|
E|----------------------------------------------------------------------------------------|

(Transcrita por:Gabriel Ysllu Chagas)
([email protected])







Quer fazer uma correção nesta cifra?







    Comentários (0) Postar um Comentário

    Nenhum comentário encontrado. Seja o primeiro!