Cifra da música: Do Espírito - Legião Urbana

Esse cifra de Legião Urbana já foi acessado por 1382 pessoas.

Comente

A música Do Espírito fez muito sucesso quando foi gravada por Legião Urbana. Quer conhecer a letra dela? Veja a letra de Do Espírito e cante.

Veja também o vídeo da música tocada.


Tom: F#
Intro.:(F#5 B5 A5)

Guitarra:Inrtrodução. 
E|------------------------------------------------------------------------------------------------------------|
B|---------------4-4br-4----------------4s5-4---4s5-4----------------4s5-4---4s5----------------4s5-4---4s5---|
G|-------------2-4-4br-4-2--------------4s5-4-2-4s5-4-2--------------4s5-4-2-4s5-2--------------4s5-4-2-4s5-2-|
D|-4-4-2-4-4-4-----------2--4-4-2-4-4-4---------------2--4-4-2-4-4-4-------------2--4-4-2-4-4-4-------------2-|
A|-4-4-2-4-4-4-----------0--4-4-2-4-4-4---------------0--4-4-2-4-4-4-------------0--4-4-2-4-4-4-------------0-|
E|-2-2-2-2-2-2--------------2-2-2-2-2-2------------------2-2-2-2-2-2----------------2-2-2-2-2-2---------------|

Riff 1
   F#5         B5        A5
E|-------------------------|
B|---------------4-4br-4---|
G|-------------2-4-4br-4-2-|
D|-4-4-2-4-4-4-----------2-|
A|-4-4-2-4-4-4-----------0-|
E|-2-2-2-2-2-2-------------|

Riff 2
   F#5         B5          A5
E|---------------------------|
B|-------------4s5-4---4s5---|
G|-------------4s5-4-2-4s5-2-|
D|-4-4-2-4-4-4-------------2-|
A|-4-4-2-4-4-4-------------0-|
E|-2-2-2-2-2-2---------------|
(esse riffs são tocados durante a música.)
(Obs:Ouça a música para saber quando muda de Riff)

(F#5 B5 A5)
Sai de mim
Que eu não quero mais saber de você
Esse eu te quero já não me convence mais 
E agora já nem me incomoda 
Sai de mim, não gosto de ser rejeitado
E agora não tem volta

G5
Eu pego o bonde andando 
Você pegou o bonde errado
   
(F#5 B5 A5)
Sua curiosidade é má 
E a ignorância é vizinha da maldade 
E só porque eu tenho não pense que é de mim 
Que você vai ter e conseguir o que não tem 
Só estou aberto a quem sempre foi do bem
E agora estou fechado e agora estou fechado pra você 

(F#5 B5 A5)                                                    |
Não, não, não venha pra cá, que eu não quero mais saber de você|4x
                                                               |                  
D5          B5 F#5
Não me procura não
D5           B5  F#5 
Você não vai me achar      
            D5    B5   C#5       D5 B5 F#5           
Você não consegue entender 

Solo.(Obs: esse '12fb-r' é assim mesmo, e´pq ele demora um pouco mais que os outros.)
E|---------------------------------------------------------------------------------|
B|--------12br-12br-12br-12fb-r--12-10-12-12br--10-12-12br--10-12-12br-10-12-10~~--|
G|---------------------------------------------------------------------------------|
D|-5...----------------------------------------------------------------------------|
A|-5...----------------------------------------------------------------------------|
E|-3...----------------------------------------------------------------------------|

E|-------------------------------------------------|
B|-(12br)-12br-10-12-10-12fbr-12-10-12-10-12-10~~~-|
G|-------------------------------------------------|
D|-------------------------------------------------|
A|-------------------------------------------------|
E|-------------------------------------------------|
(Obs:Depois desse solo vem uns efeitos. 
Eu recomendo fazer uns improvisos na hora dos efeitos)

(F#5 B5 A5)                                                    |
Não, não, não venha pra cá, que eu não quero mais saber de você|3x
                                                               |
D5          B5 F#5
Não me procura não
D5           B5  F#5 
Você não vai me achar      
            D5    B5   C#5       D5 B5 F#5           
Você não consegue entender 

Final.
   G5        G5 E5
E|------------------|
B|------------------|
G|------------------|
D|-5...-------5s2~~-|
A|-5...-------5s2~~-|
E|-3...-------3p0---|

Acordes.
F#5 ->(244xxx)
C#5 ->(x466xx)
B5  ->(x244xx)
A5  ->(x022xx)
G5  ->(355xxx)
D5  ->(x577xx)
E5  ->(022xxx)

(Transcrita por:Gabriel Ysllu Chagas)
([email protected])




Quer fazer uma correção nesta cifra?







    Comentários (0) Postar um Comentário

    Nenhum comentário encontrado. Seja o primeiro!