Cifra da música: Ainda É Cedo - Legião Urbana

Esse cifra de Legião Urbana já foi acessado por 2445 pessoas.

Comente

A música Ainda É Cedo fez muito sucesso quando foi gravada por Legião Urbana. Quer conhecer a letra dela? Veja a letra de Ainda É Cedo e cante.

Veja também o vídeo da música tocada.


Versão 1:
---------

Tom - Dm

Introdução - (Dm C Am)


                   Dm  C
Uma menina me ensinou
                    Am
Quase tudo que eu sei
                   Dm
Era quase escravidão
     C                      Am
Mas ela me tratava como um rei
                  Dm     C
Ela fazia muitos planos
                      Am
Eu só queria estar ali
                Dm
Sempre ao lado dela
         C         Am
Eu não tinha onde ir
                     Dm   C
Mas, egoísta que eu sou,
                  Am
Me esqueci de ajudar
                      Dm  C
A ela como ela me ajudou
                    Am
E não quis me separar
                      Dm
Ela também estava perdida
       C                         Am
E por isso se agarrava a mim também
                    Am
E eu me agarrava a ela
               C               Am
Porque eu não tinha mais ninguém
                       Dm         C           Am
E eu dizia: Ainda é cedo, cedo, cedo, cedo, cedo
                   Dm  C
Sei que ela terminou
                  Am
O que eu não comecei
                    Dm  C
E o que ela descobriu
                        Am
Eu aprendi também, eu sei
                           Dm
Ela me falou: - Você tem medo
        C                         Am
Aí eu disse: - Quem tem medo é você
                    Dm
Falamos o que não devia
           C            Am
Nunca ser dito por ninguém
                        Dm
ela me disse: - Eu não sei
C                           Am
Mais o que eu  sinto por você
              Dm         C             Am
Vamos dar um tempo, um dia a gente se vê
                     Dm     C    Am
E eu dizia: Ainda é cedo, cedo, cedo, cedo, cedo



Parte em que guitarra toca dedilhado
Aqui esta feito sem espaço de tempo escute a musica para decorar quando entra uma parte e quando volta a ficar em silencio Porque entre essas notas pode haver Lugares que outros instrumentos entrem e a guitarra para de tocar e depois volta a tocar .
Feito por :Flavio de Oliveira Diggelmann

         Introdução:
Mi -----------------------------------------------------------------------
Si --15/10--13--15/10---15/10---13--15/10-5-10-15/10------------15/10----
sol----------------------------------------------------------------------
Ré ----------------------------------------------------------------------
Là ----------------------------------------------------------------------
Mi ----------------------------------------------------------------------
            Musica:

Uma menina ...
Mi  ---------------------------------------------------------------------------------------
Si  -15/10--10-10-10--10-10-10--10-10-10--10-10-10--10-10-10--10-10-10--10-10-10--10-10-10-
Sol ---------------------------------------------------------------------------------------
Ré  ---------------------------------------------------------------------------------------
La  ---------------------------------------------------------------------------------------
Mi  ---------------------------------------------------------------------------------------
                                  me tratava como um rei....
Mi -------------------------------------------------------------------------------5--------------4----5-
Si -10-10-10--10-10-10--10-10-10--10-10-10--5--10--15/10--5---5--15/10--1----5----5---15/10-
Sol---------------------------------------------------------------------2--1--2--------------2----2-----
Ré -----------------------------------------------------------------------------------------------------
Lá -----------------------------------------------------------------------------------------------------
Mi -----------------------------------------------------------------------------------------------------

Mi ------------------------------------------------------------------------------------------------------
Si -5--10--15/10--5--10--5----------------------------------10--15/10--5--10--5---10--15/10--20-19-15-10-
Sol---------------------------2-2-2-2-2-2-2-2-2-2-2-2-2-2------------------------------------------------
Ré ------------------------------------------------------------------------------------------------------
Lá ------------------------------------------------------------------------------------------------------
Mi ------------------------------------------------------------------------------------------------------

Mi-------------------------------------------------------------------------------------
Si---5---5-3---10-15-10-15--15/10-5-10-15/10----8--3--------10--15-----5--10-----------
sol----2-----2------------------------------------------------------2--7------------2--
Re-------------------------------------------------------------------------------------
La-------------------------------------------------------------------------------------
Mi-------------------------------------------------------------------------------------
 
 COM DISTORÇÃO!!!
       Dm      C       Am     Dm  C     Am      Dm     C       Am       Dm    C      Am
Mi----1-----------------------1-----------------------1------------------------1-------------
SI----3-------1------1-------3-----1-----1---------3------1-------1--------3------1------1---
SOL-2--------------2-------2------------2---------2---------------2--------2-------------2---
Re-----------2------2--------------2-----2-----------------2-------2----------------2-----2--
La-----------3----------------------3------------------------3------------------------3------
Mi-------------------------------------------------------------------------------------------

VOLTA AO SOM  NORMAL DA GUITARRA

Mi-----------------------------------------------10--12----14--10--------------------------15-14------------
Si-15--10---5--10--15--10--5--10---5--8--8------10----------10--15--9--13-10-15------15---------------------
sol--------------------------------------2---------------------------------------------------------------14-
re----------------------------------------------------------------------------------------------------------
La----------------------------------------------------------------------------------------------------------
Mi----------------------------------------------------------------------------------------------------------

Mi----15-14-----------15-14-------15-14-------15-14-------15-14-------15-14-------15-14---------------------
si-------------15--------------15-----------15------------15-----------15------------15----------15---------
sol----------------14-------------14-----------14------------14-----------14------------14----------14------
re----------------------------------------------------------------------------------------------------------
la----------------------------------------------------------------------------------------------------------
mi----------------------------------------------------------------------------------------------------------

Mi----------------------------------------------------------------------------------------------------------10-
SI-10-10-10-10-10-10-10-10-10-10-10-10-10-10-10-10-10-10-10-5--10--15--10--5---10-----10---
sol------------------------------------------------------------------------------------------2---9-------------
re--------------------------------------------------------------------------------------------------7-12-------
la-------------------------------------------------------------------------------------------------------------
mi-------------------------------------------------------------------------------------------------------------

Mi-----10-----------10----------10-----------------------------------------------------------------------------
si-----------10-10------10-10-----10-5-10-10-10--------8------15-10-----10-15-15-10-15-15-10-15-15-10-15-15----
sol------------------------------------------------------------7-----7------------7----------------------------
re----------------------------------------------------------6----------7------------7--------------------------
La-------------------------------------------------------------------------------------------------------------
mi-------------------------------------------------------------------------------------------------------------
COM DISTORÇÃO
        DM       C   AM   DM   C     AM    DM    C    AM  DM  C     AM
Mi----1--------------------1--------------------1------------------1-------------------------------------------
SI----3---------1-----1---3------1-----1------3------1-----1---3-----1-----1-----------------------------------
sol---2---------------2---2-------------2------2-------------2---2------------2--------------------------------
re---------------2----2-----------2-----2--------------2-----2----------2-----2--------------------------------
la---------------3-----------------3---------------------3----------------3------------------------------------
mi-------------------------------------------------------------------------------------------------------------





Versão 2:
---------


  harmônicos                          Sem harmônico      harmônico
e|-----8-------------8--------------|------------------|------------|
B|----------------------------------|------------------|------------|
G|-7------7------7------7-------7---|-7-9-10----7-9----|-7----------|
D|---7------7------7------7---7---7-|---------7-----10-|---7--12----|
A|--------------------------7-------|------------------|---------12-|
E|----------------------------------|------------------|------------|

  Agora vem uma sesão de harmônicos
e|------------------------------------------------------------------|
B|------------------------------------------------------------------|
G|-7--------------------7-----------------7-----------------12--7---|
D|---7-7-7-7-7...-7---7---7-12----12--7-----7--12--------12-------7-|
A|------------------7----------12------7----------12--12------------|
E|------------------------------------------------------------------|

e|-----------------------------------------------7------------------|
B|-------------------------------------------------7----------------|
G|-------7-7--------------------7--------------7------7-------------|
D|---7-------7----7--12-----------7----7----7----7------7----7-7-7..|
A|-7------------7-------12-12...-----7----7---------------7---------|
E|------------------------------------------------------------------|

e|---------------------------------------------|--------8-7-8-5~----|
B|-----------------------------------------7---|----8-6-------------|
G|---7----7---7-----7---------------7----7-----|--7-----------------|
D|-7----7---------7---7-----7-----7----7-------|--------------------|
A|--------------7---------7-----7--------------|--------------------|
E|---------------------------------------------|--------------------|
                                                   | Refrão 3X |
e|-----------------|-----------------------------------12---7-------|
B|--------0--------|--------------------------------12--------7-----|
G|------2---2------|--7--------7---------------12---------------7---|
D|----2------------|----7----7---7---7------12----------------------|
A|--0--------------|-------7-------7-----12-------------------------|
E|-----------------|------------------------------------------------|
(final do refrão)   ( Solo )

e|----------------------------|-7-------|---------------------------|
B|----------------------------|---7-----|---------------------------|
G|---7---------7-----12-------|-----7---|----------------7----------|
D|-7-----7---7----------12----|-------7-|-7-7-7...-7---7---7--12----|
A|-----7----------12-------12-|---------|------------7-----------12-|
E|----------------------------|---------|---------------------------|
                               |7 vezes|
e|------------------------------------------------------------------|
B|------------------------------------------------------------------|
G|-12---------7----7-------7-------7--------------------------7-----|
D|----------7----7---7---7---7---7---7-----7------12---12-------7---|
A|----12--7------------------------------7-----12---------12------7-|
E|------------------------------------------------------------------|

e|----------------------------------|-------8-7-8-5~-|---------------|
B|----------------------------------|---8-6----------|------0--------|
G|-12-------7-----7-----------------|-7--------------|----2---2------|
D|----12------7-----7------7-----12-|----------------|--2------------|
A|-----------------------7----12----|----------------|---------------|
E|----------------------------------|----------------|---------------|
                                       (Refrão 3X)

e|-----------------------------|-8-5...--8-8-...-8-5-8-5..-8-0-0-0-5-|
B|-----0---------3---------3---|-------------------------------------|
G|---2---2-----2---2-----2---2-|-------------------------------------|
D|-2---------2---------2-------|-------------------------------------|
A|-----------------------------|-------------------------------------|
E|-----------------------------|-------------------------------------|
   ( Repetição Contínua )        ( Outra guitarra )

essa tab não foi trancrita por mim (Gabriel Ysllu Chagas)





Quer fazer uma correção nesta cifra?







    Comentários (0) Postar um Comentário

    Nenhum comentário encontrado. Seja o primeiro!