Cifra da música: A Canção Do Senhor Da Guerra - Legião Urbana

Esse cifra de Legião Urbana já foi acessado por 1991 pessoas.

1.00 / 5 - 1
Comente

A música A Canção Do Senhor Da Guerra fez muito sucesso quando foi gravada por Legião Urbana. Quer conhecer a letra dela? Veja a letra de A Canção Do Senhor Da Guerra e cante.

Veja também o vídeo da música tocada.


Tom: D
Intr.: D G E A


Introdução e Riff da música.
   D              G              E              A
E|----------------------------------------------------------------------|
G|----------------------------------------------------------------------|
B|-5s7-7-5s7-7-7-7-------------------7s9-9-7s9-9-9-9--------------------|
D|-5s7-7-5s7-7-7-7--3s5-5-3s5-5-5-5--7s9-9-7s9-9-9-9--5s7-7-7-5s7-7-7-7-|
A|------------------3s5-5-3s5-5-5-5-------------------5s7-7-7-5s7-7-7-7-|
E|----------------------------------------------------------------------|


D                 G            E  A
Existe alguém esperando por você
            D              G 
Que vai comprar a sua juventude
        E           A
E convencê-lo a vencer

G* 
Mais uma guerra sem razão
          DF#
(E já são tantas as crianças com armas na mão)
           F7+
Mas lhe explicam novamente que a guerra gera emprego
    C
E Aumenta a produção
    G*
Uma guerra sempre avança a tecnologia
      DF#
Mesmo sendo guerra santa, quente, morna ou fria
     F7+
P'rá que exportar comida
                     C                A
Se as armas dão mais lucro na exportação?

D                         G            E  A
Existe alguém que está contando com você 
       D                       G
P'rá lutar em seu lugar já que nessa guerra
      E               A
Não é ele quem vai morrer
         D
E quando longe de casa 
  G                    E            A
Ferido e com frio o inimigo você espera
        D                      G
Ele estará com outros velhos 
                  E           A
Inventando novos jogos de guerra

G*                       DF#
E belíssimas cenas de destruição
       F7+                        C
(Não teremos mais problemas com a super população)
G*                        DF#
Veja que uniforme lindo fizemos pra você
  F7+                               C                   A
E lembre-se sempre que Deus está do lado de quem vai vencer

Antes do solo.
E|-----------|----------------------|
B|-----------|----------------------|
G|-----------|----------------------|
D|-----------|----------------------|
A|-----------|-7-5-5-3~--3-7-5-5-3~-|
E|-3s12s3-3~-|----------------------|

Eu não sei se vc vai entender mas eu vou explicar.
nessa parte é a parte que tem que raspar apalheta na corda.
para que a raspada fique identica, vc deve segurar as cordas
A & E na terceira casa. O (rp) significa raspar a palheta.
(Obs:Raspe em direção a mão que vc faz os acordes.)

E|---------|
B|---------|
G|---------|
D|---------|
A|-3----rp-|
E|-3----rp-|

Solo:
E|-5---------------------------------------------------9-10-12-14--10----10---------------------|
B|---7----------7-8-10-10-10-----12-10-12-10-12--10-12----------------12------10----10--10-12---|
G|-----7-7--7-9---------------11-------------------------------------------------11-----------9-|
D|----------------------------------------------------------------------------------------------|
A|----------------------------------------------------------------------------------------------|
E|----------------------------------------------------------------------------------------------|

E|-5---------------------------------------------------9-10-12-14--10----10---------------------|
B|---7----------7-8-10-10-10-----12-10-12-10-12--10-12----------------12------10----10----------|
G|-----7-7--7-9---------------11-------------------------------------------------11-----9-11----|
D|-------------------------------------------------------------------------------------------12-|
A|----------------------------------------------------------------------------------------------|
E|----------------------------------------------------------------------------------------------|

E|-10-14--10----10--------------------------10-14--10----9--9-10-12-10-|
B|-----------12-----10----10--------------------------10---------------|
G|---------------------11-----9-11-------------------------------------|
D|---------------------------------12----------------------------------|
A|---------------------------------------------------------------------|
E|---------------------------------------------------------------------|


D                         G            E  A
Existe alguém que está contando com você 
       D                       G
P'rá lutar em seu lugar já que nessa guerra
      E               A
Não é ele quem vai morrer
         D
E quando longe de casa 
  G                    E            A
Ferido e com frio o inimigo você espera
        D                      G
Ele estará com outros velhos 
                  E           A
Inventando novos jogos de guerra

G*                       DF#
E belíssimas cenas de destruição
       F7+                        C
(Não teremos mais problemas com a super população)
G*                        DF#
Veja que uniforme lindo fizemos pra você
  F7+                               C                   A
E lembre-se sempre que Deus está do lado de quem vai vencer

D                      Bm
O Senhor da Guerra não gosta de crianças
D                      F           Eb
O Senhor da Guerra não gosta de crianças

Final 
E|----------------|
B|-7-5--------5---|
G|-----7-6--7---7-|
D|----------------|
A|----------------|
E|----------------|

Acordes:
D    ->(557775)     
G    ->(355433)
G*   ->(320033)
E    ->(779997)
A    ->(577655)
DF# ->(200232)
F7+  ->(x03210)
C    ->(x32010)
Bm   ->(224432)




Quer fazer uma correção nesta cifra?







    Comentários (0) Postar um Comentário

    Nenhum comentário encontrado. Seja o primeiro!