Cifra da música: Watchin you - Kiss

Esse cifra de Kiss já foi acessado por 596 pessoas.

Comente

A música Watchin you fez muito sucesso quando foi gravada por Kiss. Quer conhecer a letra dela? Veja a letra de Watchin you e cante.

Veja também o vídeo da música tocada.


                ITRODUÇÃO
      
 --------------------------------------------------
 --------------------------------------------------
 ---------------------3----------------------------
 -------------------3----5--5---3------------------
 ------------3H5-------------------5---------------
 ---------3----------------------------------------


 --------------------------------------------------
 -------------------------------------------------- 
 ------------------3-------------------------------
 -----------------3--5--3--------------------------
 ----------5H3-------------5----3P1----------------
 ------------------------------------3-1-----------

          

 --------------------------------------------------
 --------------------------------------------------
 --------------------------------------------------
 -----5-3-5--------5-3-5-3-------5-3-5-3---5-3-5-3-
 -------------5-------------5-----------5----------
 --3------------3-------------3-----------3--------
  
   executar esta parte 2 vezes,ela é cantada por
 Gene Simmos em seguida desta parte.

 
 



Quer fazer uma correção nesta cifra?







    Comentários (0) Postar um Comentário

    Nenhum comentário encontrado. Seja o primeiro!