Cifra da música: Shandi - Kiss

Esse cifra de Kiss já foi acessado por 581 pessoas.

Comente

A música Shandi fez muito sucesso quando foi gravada por Kiss. Quer conhecer a letra dela? Veja a letra de Shandi e cante.

Veja também o vídeo da música tocada.


Intro: (E E G#m C#m7) 2x junto com Riff 1

F#m            B9
I just can't pretend no more,
        G#m            A
I keep runnin' out of lies
F#m             B9         E *Riff 2
Lovin' you is killin' me inside
     F#m              B9
Everytime I find the words to end it,
 F#m               B9
Something in your eyes won't let it

 E                            (G#m C#m7) 2x |
Shandi, tonight must last us forever,       |-> Riff 1
 E                            (G#m C#m7) 2x |
Forever we say goodnight and go home
        F#m           B9
But you know me very well,
       F#m                C9  C9/B  A  F#m            B9
And I know you, you can't tell me goodnight (say goodnight) 

F#m             B9
We been holding on so tight,
        G#m            A
We're afraid to let it go
F#m                 B9                 E *Riff 2
Shake it loose, we both could use the ride
         F#m           B9
Here's another mess I got myself in,
    F#m                B9
And when you touch me you ain't helpin'

 E                            (G#m C#m7) 2x |
Shandi, tonight must last us forever,       |-> Riff 1
 E                            (G#m C#m7) 2x |
Forever we say goodnight and go home
        F#m           B9
But you know me very well,
       F#m                C9  C9/B  A  F#m            B9
And I know you, you can't tell me goodnight (say goodnight) 
         F#m            B9            E                (G#m   C#m7) 2x junto com Riff 1
Say goodnight when we should say goodbye (say goodbye) mmm.. yeah..


 E                            (G#m C#m7) 2x |
Shandi, tonight must last us forever,       |-> Riff 1
 E                            (G#m C#m7) 2x |
Forever we say goodnight and go home
 E                G#m   C#m7           G#m C#m7
Shandi, Shandi, tonight must last us forever


Riff 1

E|--5---5--x-4----4--4-4----5---5--x-4----4--4-4-----------|
B|--5---5--x-5----5--5-5----5---5--x-5----5--5-5-----------|
G|--4---4--x-4----4--4-4----4---4--x-4----4--4-4-----------|
D|---------------------------------------------------------|
A|---------------------------------------------------------|
E|---------------------------------------------------------|
                                                            
E|----------------4---4----------------------4---4---------|
B|----------x-----4h5-5--5p4--------4--x-----4h5-5--5p4----|
G|-------4--x-----4h6-6--6p4--------4--x-----4h6-6--6p4----|
D|--4--x------4h6--------------4--x------4h6---------------|
A|---------------------------------------------------------|
E|---------------------------------------------------------|


Riff 2

E|--4---4--x-4h5---5--5-5---4---4--x-4-----4--4-4----------|
B|--5---5--x-5-----5--5-5---5---5--x-5-----5--5-5----------|
G|--4---4--x-4-----4--4-4---4---4--x-4-----4--4-4----------|
D|---------------------------------------------------------|
A|---------------------------------------------------------|
E|---------------------------------------------------------|

Na versão original do álbum Unmasked essa música não tem final, mas
na versão do álbum Alive IV eles a terminam desse jeito:

E|------------------------------------0--------------------|
B|------------------------------------0--------------------|
G|------------------------------------1--------------------|
D|--0----0----0------0----0----0------2--------------------|
A|--3----2----0------3----2----0------2--------------------|
E|------------------------------------0--------------------|



Quer fazer uma correção nesta cifra?







    Comentários (0) Postar um Comentário

    Nenhum comentário encontrado. Seja o primeiro!