Cifra da música: Dust in the Wind - Kansas

Esse cifra de Kansas já foi acessado por 1449 pessoas.

Comente

A música Dust in the Wind fez muito sucesso quando foi gravada por Kansas. Quer conhecer a letra dela? Veja a letra de Dust in the Wind e cante.

Veja também o vídeo da música tocada.


intro:                                                  
|---------------|---------------|-----------------
|-1-------1-----|-0-------0-----|-3-------3-------
|-----0-------0-|-----0-------0-|-----0-------0---
|---2-------2---|---2-------2---|---2-------2-----
|-3-----3-------|-3-----3-------|-3-----3---------
|---------------|---------------|-----------------
                                                                                                   
|---------------|---------------|-----------------
|-1-------1-----|-0-------0-----|-3-------3-------
|-----0-------0-|-----2-------2-|-----2-------2---
|---2-------2---|---2-------2---|---2-------2-----
|-3-----3-------|-0-----0-------|-0-----0---------
|---------------|---------------|-----------------
                                                                                                    
|---------------|---------------|-----------------
|-1-------1-----|-0-------0-----|-3-------3-------
|-----2-------2-|-----2-------2-|-----0-------0---
|---2-------2---|---2-------2---|---2-------2-----
|-0-----0-------|-0-----0-------|-3-----3---------
|---------------|---------------|-----------------
                                                                                                    
|---------------|---------------|-----------------
|-1-------1-----|-0-------0-----|-3-------3-------
|-----0-------2-|-----0-------0-|-----0-------0---
|---2-------2---|---2-------2---|---2-------2-----
|-3-----3-------|-3-----3-------|-3-----3---------
|---------------|---------------|-----------------
                                                                                                    
|---------------|---------------|-----------------
|-1-------1-----|-0-------0-----|-3-------3-------
|-----2-------2-|-----2-------2-|-----2-------2---
|---2-------2---|---2-------2---|---2-------2-----
|-0-----0-------|-0-----0-------|-0-----0---------
|---------------|---------------|-----------------
                                                                                                    
|---------------|---------------------------------
|-1-------1-----|---------------------------------
|-----2-------2-|---------------------------------
|---2-------2---|---------------------------------
|-3-----3-------|---------------------------------
|---------------|---------------------------------
                                                  
Am    G/b                     
                    
C      G    Am
I    close  my  eye
G           Dm7            Am               Am   G/B
only for a moment, and the moment's gone.
C    G/B Am
All  my  dreams
G              Dm7         Am       D/F#     
pass before my eyes, a curiosity.
       G       Am      Am/G
Dust  in the wind.
D/F#             G            Am       
All they are  is dust in  the wind.

G/B   C     G/B   Am
      Same  old   song.
G               Dm7        Am             Am   G/B
Just a drop of water in an endless sea.   
C     G/B   Am 
All   we    do
G               Dm7                Am          D/F#    
crumbles to the ground though we refuse to see.
       G       Am      Am/G
Dust  in the wind.                
D/F#          G           Am           G
All we are is dust in the wind.      
F
Ohhhh

Solo:
(Violin Solo transcribed for guitar)
                        
Am                              G                                             
|--------------------------|-------------------------------7--8--10-----|
|--5-----------------------|------------------------8--10---------------|
|--------------------------|---7--5--4-----5--7-------------------------|
|--------------------------|--------------------------------------------|
|--------------------------|--------------------------------------------|
|--------------------------|--------------------------------------------|
                                                                                
F                                                                        
----------------------------5--7--8--------7--|-------------------------
----------------------6--8--------------------|-------------------------
-5--4--------4--5-----------------------4-----|-------------------------
-------7--------------------------------------|-------------------------
----------------------------------------------|-------------------------
----------------------------------------------|-------------------------
                                                                                
D/F#                                         Am                          
-5--------------7--8--7--5-----5-----------|---------------------------|
----------------------------8-----8--5-----|---5-----------------------|
----------------------------------------7--|---------------------------|
-7--------------------------------------5--|---------------------------|
-------------------------------------------|---------------------------|
-------------------------------------------|---------------------------|
                                                                                
G                                                                             
-----------------------------7--8--10-----|-----------------------------
----------------------8--10---------------|-----------------------------
-7--5--4-----5--7-------------------------|-----------------------------
------------------------------------------|-----------------------------
------------------------------------------|-----------------------------
------------------------------------------|-----------------------------
                                                                                
F                                                                        
----------------------------5--7--8--------7--|-------------------------
----------------------6--8--------------------|-------------------------
-5--4--------4--5-----------------------4-----|-------------------------
-------7--------------------------------------|-------------------------
----------------------------------------------|-------------------------
----------------------------------------------|-------------------------
                                                                                

D/F#                                                    C                  
-----------------------------------------10--12--13--|---15---------15-----|----
-10--------------12--13--12--10--12--13--------------|---------------------|----
-----------------------------------------------------|---------------------|----
-7---------------------------------------------------|---------------------|----
-----------------------------------------------------|---7----------7------|----
-----------------------------------------------------|---------------------|----
                                                                                

                                                                          
----15--17--15------15-----------------------------------------------|----------
----------------18------18--17--18---17--15--17--15------15----------|----------
-----------------------------------------------------17------17--16--|----------
---------------------------------------------------------------------|----------
----7----------------------------------------------------------------|----------
---------------------------------------------------------------------|----------
                                                                                

Am
-------------------------|------------------------------------------------------
-------------------------|------------------------------------------------------
-14------------14--------|------------------------------------------------------
-------------------------|------------------------------------------------------
-7-------------7---------|------------------------------------------------------
-------------------------|------------------------------------------------------
                                                                                

--------------------------------------------------------------17--|-------------
-------------------------15--17-------15--17------15--17--18------|-------------
-14--16--17--14--16--17-----------17----------17------------------|-------------
------------------------------------------------------------------|-------------
----------------------------------7-------------------------------|-------------
------------------------------------------------------------------|-------------
                                                                                
C
-------15------------15-----|---------------------------------------------------
----------------------------|---------------------------------------------------
----------------------------|---------------------------------------------------
----------------------------|---------------------------------------------------
---------------------7------|---------------------------------------------------
----------------------------|---------------------------------------------------
                                                                                
-15--17--15------15-----------------------------------------------|-------------
-------------18------18--17--18---17--15--17--15------15----------|-------------
--------------------------------------------------17------17--16--|-------------
------------------------------------------------------------------|-------------
------------------------------------------------------------------|-------------
------------------------------------------------------------------|-------------
                                                                                
Am
-------------------|-----------------------------||-----------------------------
-------------------|-----------------------------||-----------------------------
-14------------14--|-----------------------------||-----------------------------
-------------------|-----------------------------||-----------------------------
-7-----------------|-----------------------------||-----------------------------
-------------------|-----------------------------||-----------------------------
                                                                                

Am    G/B

C        G/B      Am
Don't    hang     on.
G                 Dm7         Am              Am  G/B
Nothing lasts forever but the earth and sky.    It
C     G/B Am
slips away.
G              Dm7           Am            D/F#  
All your money won't another minute buy.

       G      Am       Am/G
Dust in the wind.        

D/F#          G            Am            Am/G                 D/F#   
All we are is dust in the wind (all we are is dust in the wind) 

      G       Am                Am/G         D/F#
Dust in the wind. (everything is dust in the wind)

               G            Am
Everything is dust  in the wind.



Chords:

Am: 002210
Am/G: 302210
G: 320033
G/B: 020033
D/F#: 200230
Dm7: 000231
C: 032010






Quer fazer uma correção nesta cifra?







    Comentários (0) Postar um Comentário

    Nenhum comentário encontrado. Seja o primeiro!