Cifra da música: Starbelly - Hole

Esse cifra de Hole já foi acessado por 437 pessoas.

Comente

A música Starbelly fez muito sucesso quando foi gravada por Hole. Quer conhecer a letra dela? Veja a letra de Starbelly e cante.

Veja também o vídeo da música tocada.


Play clean the first time and w/ distortion the rest.

E--------------------------------------------|
B--------------------------------------------|
G-5--7--7--7--7--7----7----5-5-4--2----------|  (6x)
D-5--7--7--7--7--7----7----5-5-4--2--3---5-5-|
A-3--5--5--5--5--5----5----3-3-2--0--3---5-5-|
E------------------------------------1---3-3-|

E--------------------------------------------|
B--------------------------------------------|
G-5--7--7--7--7--7----7----5-5-4--2----------| 
D-5--7--7--7--7--7----7----5-5-4--2--3-------|
A-3--5--5--5--5--5----5----3-3-2--0--3-------|
E------------------------------------1-------|

You know what it is?
It's that you're a masochist
It's what I'm thinking right now
I've never

 'Rhannon rings like a bell through the night
And wouldn't you love to love her...'
'And I walk straight into this mess of mine
And I put on my best sunday dress
And I walk straight into this mess of mine...'
 



Quer fazer uma correção nesta cifra?







    Comentários (0) Postar um Comentário

    Nenhum comentário encontrado. Seja o primeiro!