Cifra da música: She walks on me - Hole

Esse cifra de Hole já foi acessado por 485 pessoas.

Comente

A música She walks on me fez muito sucesso quando foi gravada por Hole. Quer conhecer as demais músicas? Conheça as letras das músicas gravadas por Hole e aproveite.

Veja também o vídeo da música tocada.


Intro:

e-----------------------------------------------------------------------|
B|-----------------------------------------------------------------------|
G|------------7br-7--7----------------7br----7----------------7br--------|
D|---------------------0-----------------------0------------------7--7-7/|
A|-7h9---9---------------7h9---9--9-9-----0------7h9---9--9-9-----0--0-0-|
E|-----------------------------------------------------------------------|

e------------------------------------------------20-20-20-21tr--22tr--23tr--|
B|-15--15--16-16-16-16-17-17-17-17-18-18-18-18-19-19-19-19-20tr--21tr--22tr--|
G|-14--14--15-15-15-15-16-16-16-16-17-17-17-17-18-18-18-18-------------------|
D|---------------------------------------------------------------------------|
A|---------------------------------------------------------------------------|
E|---------------------------------------------------------------------------|

Verse and Chorus:
Riff 1: 
 A5           E5           D           B5  
e-------------------------------------------------|
B|-------------------------------------------------|
G|-------------8--8--8--8-8-7--7--7--7--4--4--4--4-|  (20x)
D|-7----7--7-7-8--8--8--8-8-7--7--7--7--4--4--4--4-|
A|-7----7--7-7-6--6--6--6-6-5--5--5--5--2--2--2--2-|
E|-5----5--5-5-------------------------------------|

Verse 2 and Chorus:  
Riff 1 (18x)Bridge:
e------------------------------------------|
B|------------------------------------------|
G|-----------------------5------------------|  (2x)
D|-----------------------5------------------|
A|-7---------------0-0-0-3------------------|
E|-5---------------0-0-0--------------------|

e------------------------------------------|
B|------------------------------------------|
G|-----------------------5----5---5---------|  (1x)
D|-----------------------5----5---5---------|
A|-7-------br------0-0-0-3----3---3---------|
E|-5-------br------0-0-0--------------------| 

e------------------------------------------|
B|------------------------------------------|
G|-----------------------5------------------|  (1x)
D|-----------------------5------------------|
A|-7---------------0-0-0-3------------------|
E|-5---------------0-0-0--------------------|

Verse 3 and Chorus: (10x)

Bridge: Same as before

Break:
e-------------------------------------------------------------------------|
B|-------------------------------------------------------------------------|
G|--------------7br-7--7----------------7br-7--7----------------7br--------|
D|---------------------0-------------------------0------------------7--7-7-|
A|-7h9---9--9-9------------7h9---9--9-9------------7h9---9--9-9-----0--0-0-|
E|-------------------------------------------------------------------------|

e------------------------------------------------20-20-20-21tr----|
B|-15--15--16-16-16-16-17-17-17-17-18-18-18-18-19-19-19-19-20tr----|
G|-14--14--15-15-15-15-16-16-16-16-17-17-17-17-18-18-18-18---------|
D|-----------------------------------------------------------------|
A|-----------------------------------------------------------------|
E|-----------------------------------------------------------------|

Verse 4 and Chorus: Riff 1 (10x)
 and then let an A power chord ring
e------|
B|------|
G|------|
D|--7---|
A|--7---|
E|--5---|

Lyrics:
Geeks do not have pedigrees 
Or perfect punk-rock resumes 
Or anorexic magazines 
It smells like girl 
It smells like girl 

She walks over me 
She walks over me 

Hold you close like we both died 
My ever present suicide 
My stupid fuck, my blushing bride 
Oh, tear my heart out, tear my heart out 

She walks over me 
She walks over me 

I shut my mouth with you whore
I gotta use the rest of you whore
Yeah, I gotta shut my mouth with you whore
I gotta use the rest of you 

Kitty, kitty
Please come here 
Now don't you touch me, don't you dare 
We look the same, we talk the same, we are the same, we are the same 

She walks over me 
She walks over me 

I shut my mouth with you whore
I gotta use the rest of you whore
Yeah, I gotta shut my mouth with you whore
I gotta use the rest of you 

Now you see she walks the same 
And now you see she talks the same 
You never know what you will get 
You never know what you'll forget 
She walks over me 
She walks over me 



Quer fazer uma correção nesta cifra?







    Comentários (0) Postar um Comentário

    Nenhum comentário encontrado. Seja o primeiro!