Cifra da música: Good Sister / Bad Sister - Hole

Esse cifra de Hole já foi acessado por 417 pessoas.

Comente

A música Good Sister / Bad Sister fez muito sucesso quando foi gravada por Hole. Quer conhecer as demais músicas? Conheça as letras das músicas gravadas por Hole e aproveite.

Veja também o vídeo da música tocada.


Chorus:

E|---------------------------------------------
B|---------------------------------------------
G|---------------------------------------------
D|--2-2-2------------------------------------ x 4
A|--2-2-2--3-3-3---6--6--5---6--6-------
E|--0-0-0--3-3-3---6--6--6---6--6--6---

(6-6-5-6-6-5-6 on the last time)

 

Verse:

E|---------------------------------------------------------------------------
B|---------------------------------------------------------------------------
G|---------------------------------------------------------------------------
D|--2-2-2-2--2-2--3-3-3-3-3-3--5-5-5-5-5-5--5-5-5-5--5--5---------- x 4
A|--2-2-2-2--2-2--3-3-3-3-3-3--5-5-5-5-5-5--6-6-6-6--6--6---------
E|--0-0-0-0--0-0--3-3-3-3-3-3--5-5-5-5-5-5--6-6-6-6--6--6---------

 

Chorus: x 4

 

Verse: x 4

 

Bridge:

E|-----------------------------0-----------0---
B|---------------------------2----------2---2---
G|------------------------0-----------0-------0- x 4
D|--4-4-4-4-4-4-4-4------------------------
A|--4-4-4-4-4-4-4-4------------------------
E|--2-2-2-2-2-2-2-2------------------------

 

C*C*C*C*C*C*C*C* EEE x 4

C* A

 

Chorus: x 4

 

 

Verse: x 4

 

All of bridge: x 2

 

Chorus: x half

Lyrics:

Good sister, bad sister
Better burn that dress sister
Scar tissue blood blister
Suck upon the dregs sister

I can't and I want to so bad and
I try but I can't and I want to so bad and
I try but I can't and I want to so bad and
I try but I can't and I want to so bad and

Good sister, bad sister
You’re different from the rest sister
Choke strangle rip twist her
Sell me down the river sister

I can't and I want to so bad and
I try but I can't and I want to so bad and
I try but I can't and I want to so bad and
I try, I try, I try

Come here and sit down just for a sec please just when you’re done
You’re choking on big black bloody mouthfulls of it
Pet me and I am your dog, dog descent
You’re choking on your candy flesh
I'll be the biggest scar in your back
Run down it jagged and make it back
I'll be the biggest dick that you ever had
You want it bad
You want it bad
You want it

Good sister, bad sister
Tell me what you want sister
Better watch your back sister
Even you cannot resist her

But I can't and I want to so bad and
I try but I can't and I want to so bad and
I try but I can't and I want to so bad and
I try but I can't and 
I try, I try

Sugar star the highest fall down tells a piece
She comes to crucify all the little girls
Love not me move it to Greece
And sugar comes from her arteries

I'll be the biggest scar
Run down it jagged and make it a bly
I'll be the biggest scar in your sky
You want it bad
You want it bad 
You want it bad

She's in, she is incredulous
Mortal doctor rips off her dress
She wants you in her descent
Choking on her candy flesh

I'll be the biggest scar in your back
Run down it jagged and make it back
I'll be the biggest dick that you ever had
Hey, you want it bad
You want it bad
You want it






Quer fazer uma correção nesta cifra?







    Comentários (0) Postar um Comentário

    Nenhum comentário encontrado. Seja o primeiro!