Cifra da música: Garbadge Man - Hole

Esse cifra de Hole já foi acessado por 416 pessoas.

Comente

A música Garbadge Man fez muito sucesso quando foi gravada por Hole. Quer conhecer a letra dela? Veja a letra de Garbadge Man e cante.

Veja também o vídeo da música tocada.


Chords

   D    E   C
e:-0---0---0-
B:-7---9---5-
G:-7---9---5-
D:-7---9---5-
A:-5---7---3-
E:-x---x---x-

Verse:
E---------------------------------------------------------------
B---------------------------------------------------------------
G---------------------------------------------------------------
D---7--9-9-9---------------------------------2-----2------2----- x 6
A---5--7-7-7--10-10--10---5-----5-----5------2-----2------2-----
E-------------8--8---8----3-----3-----3------0-----0------0-----

Chorus:
D E D E D E EEEEEEE D E D E D CCCCCCCC x 3

Lyrics:
She tears the hole of even wider
Its all the darkness up inside her
Holy old yeah
Your mine your everything is mine
With or without a doubt
Where the fuck were you when my lights went out...whoa
Yeah you don't want to look at it
Nah hey....whoa
Yeah you don't want to look at it wow
With or without a doubt
C'mon and let me out
Yeah where the fuck were you when my lights went out...whoa
Yeah you don't want to look at it
Nah hey...whoa whoa
Yeah you don't want to look at me
C'mon let me out c'mon and let me out
Yeah tie a soul to you when your life goes down
Tire floods when your falling down
I spread my right all over this town
And everyone of you looks the same
And everyone of you feels the same



Quer fazer uma correção nesta cifra?







    Comentários (0) Postar um Comentário

    Nenhum comentário encontrado. Seja o primeiro!