Cifra da música: Credit in the straight world - Hole

Esse cifra de Hole já foi acessado por 457 pessoas.

Comente

A música Credit in the straight world fez muito sucesso quando foi gravada por Hole. Quer conhecer a letra dela? Veja a letra de Credit in the straight world e cante.

Veja também o vídeo da música tocada.


End of Old Age Intro: Guitar comes in dreamily after 'legless caress')

e------------------0------------|
B----------------------0--------|
G-5-5-5-5-5-5--------------5-5--|
D-5-5-5-5-5-5--------------5-5--|
A-3-3-3-3-3-3-3------------3-3--|
E-------------------------------|

Intro: 
  E5             Esus                           D#5/E  
Riff 1: Palm mute
e-------------------------------------------------------------------|
B-------------------------------------------------------------------|
G-----------------------------------------------------------------1-|
D-2-----2-----2---2-----2-----2---2-----2-----2---9-----9---------2-|
A-2-----2-----2---4-----4-----4---4-----4-----4---7-----7-----7---2-|
E-0-0-0-0-0-0-0-000-0-0-0-0-0-0-000-0-0-0-0-0-0-000-0-0-0-0-0-0-000-|

e-------------------------------------------0---0--0-0------0-------|
B-----------------------------------------0-----0--0-0------0-------|
G-----1-----------1---1---------------------------------8------8----|
D-----2-----------2---2-------2---2--2----7-----7--7-7--8------8----|
A-----2----0-2-0--2---2-------4---4--4-4--7-----7--7-7--6-----------|
E-0-0-0-00--------0---0--0-0--0---0--0-0------0-0-------0-----------|

Pre-Verse: 
Riff 2:
  E         A#5           F5/F#5  B        C
e-------------------------------------------------------|
B-------------------------------------------------------|
G-1---1--1-1--3---3--3-3-------------------5--5--5-5-5--|  (2x)
D-2---2--2-2--3---3--3-3--3/4----4-4-4-xx4-5--5--5-5-3--|
A-2---2--2-2--1---1--1-1--3/4----4-4-4-xx4-3--3--3-3-3--|
E-0---0--0-0--------------1/2----2-2-2-xx2--------------|

Verse 1:
Riff 3: 'Go for credit...' comes in 2nd time
e---------------------------------------------------------|
B-0--x-0--x-x-x-0--x-0--x-x-x-0--x-0--x-x-x-0--x-0--x-x-x-|
G-1--x-1--x-x-x-1--x-1--x-x-x-1--x-1--x-x-x-1--x-1--x-x-x-|  (2x)
D-2--x-2--x-x-x-2--x-2--x-x-x-2--x-2--x-x-x-2--x-2--x-x-x-|
A-2--x-2--x-x-x-2--x-2--x-x-x-2--x-2--x-x-x-2--x-2--x-x-x-|
E---------------------------------------------------------|

Riff 2: (1x) with feedback, all guitarsVerse 2:

Riff 3a: 'I got some credit...'   Riff 4: 'I lost a leg...'
e-----------------------------|  |--------------------------------------|
B-----------------------------|  |-2--------2---------------------------|
G-----------------------------|  |-2--------2-------4/9-------9/-14-----|  
D-2--x-2--x-x-x-2--x-2--x-x-x-|  |-2--------2-------2/7-------9/-14-----|
A-2--x-2--x-x-x-2--x-2--x-x-x-|  |-0--------0---------------------------|
E-0--x-0--x-x-x-0--x-0--x-x-x-|  |--------------------------------------| 

Riff 2: (2x) 'Will die....' Verse 3:

Riff 3: (2x)  A second guitar adlibs with harmonics on high E, 7th fret the
first time through and then 'Instant credit...'

At then end of verse: 'A' chord followed by Riff 2
 
'Real world gets you high...'
e----------------------------------------------------------------|
B-2--------------------------------------------------------------|
G-2--------1---1--1-1--3---3--3-3-------------------5--5--5-5-5--|
D-2--------2---2--2-2--3---3--3-3--3/4----4-4-4-xx4-5--5--5-5-3--|
A-0--------2---2--2-2--1---1--1-1--3/4----4-4-4-xx4-3--3--3-3-3--|
E----------0---0--0-0--------------1/2----2-2-2-xx2--------------|
Break:
 
Guitar I: 
 E5
e------------------------------------------------------------| 
B------------------------------------------------------------| 
G------------------------------------------------------------|  
D-2----2---------2----2---------2----2---------2----2--------|
A-2----2---------2----2---------2----2---------2----2--------|
E-0----0---------0----0---------0----0---------0----0--------|
 Guitar II
e------------------------------------------------------------|
B------------------------------------------------------------|
G----0-------2-2----0-------2-2----0-------2-2----0-------2--|
D-2----2-0-0-----2----2-0-0-----2----2-0-0-----2----2-0-0----|
A------------------------------------------------------------| 
E------------------------------------------------------------| 
 
 Guitar I: 
  E5         A#        F#5         C
e---------------------------------------------|
B------------3-----3-3-------------5-----5-5--| 
G------------3-----3-3-------------5-----5-5--| 
D-2-----2-2--3-----3-3--4-----4-4--5-----5-5--| 
A-2-----2-2--1-----1-1--4-----4-4--3-----3-3--|
E-0-----0-0-------------2-----2-2-------------|

 Guitar II
e---------------------------------------------|
B---------------------------------------------|
G------------15--------------------17--17-----|
D-2---2///14------144------4/16------------|
A---------------------------------------------|
E---------------------------------------------|
  
Guitar I: Riff 3a (2x) while Guitar II plays:
e-----------------------------------------------|
B-17----------17---17---------------------------|
G-17--bf------17-----------17bf-----------------|
D-----------------------------------------------|
A-----------------------------------------------|
E-----------------------------------------------|

Verse 4:
Riff 3a: 'I got some credit...'   Riff 4: 'I lost a leg...'
e-----------------------------|  |--------------------------------------|
B-----------------------------|  |-2--------2---------------------------|
G-----------------------------|  |-2--------2-------4/9-------9/-14-----|  
D-2--x-2--x-x-x-2--x-2--x-x-x-|  |-2--------2-------2/7-------9/-14-----|
A-2--x-2--x-x-x-2--x-2--x-x-x-|  |-0--------0---------------------------|
E-0--x-0--x-x-x-0--x-0--x-x-x-|  |--------------------------------------| 


Riff 2: 
  E   A#      F             F#5  B        C
e-------------------------------------------------------|
B-------------------------------------------------------|
G-1---1--1-1--3---3--3-3-------------------5--5--5-5-5--|  (1x)
D-2---2--2-2--3---3--3-3--3/4----4-4-4-xx4-5--5--5-5-3--|
A-2---2--2-2--1---1--1-1--3/4----4-4-4-xx4-3--3--3-3-3--|
E-0---0--0-0--------------1/2----2-2-2-xx2--------------|

  F     F#5       B     C
e-------------------------------|
B-------------------------------|
G------------------5--5--5-5-5--|
D-3/4----4-4-4-xx4-5--5--5-5-3--|
A-3/4----4-4-4-xx4-3--3--3-3-3--|
E-1/2----2-2-2-xx2--------------|

e----------------------------------------------|
B-0--x-0--x-x-x-0--x-0--x-x-x-0--x-0--x-x-x-0--|
G-1--x-1--x-x-x-1--x-1--x-x-x-1--x-1--x-x-x-1--| 
D-2--x-2--x-x-x-2--x-2--x-x-x-2--x-2--x-x-x-2--|
A-2--x-2--x-x-x-2--x-2--x-x-x-2--x-2--x-x-x-2--|
E----------------------------------------------|

Lyrics:
And I will awake 
Your highness- I'm so high I cannot walk 
And I will awake 
You cripple, you take away my time, my peace, my empathy 
No babies sleep on atrophy 
Your unborn love and fetal stress 
Hard bitter candy legless caress.

Go for credit in the straight world 
Look a dealer in the eye 
Go for credit in the real world, won't you try? 
I got some credit in the straight world 
I lost a leg, I lost an eye 
Go for credit in the real world you will die 

It's the credit in the straight world 
Leave your money when you die I got some credit in the straight world 
I lost a leg, I lost an eye 
Go for credit in the real world, you will die 





Quer fazer uma correção nesta cifra?







    Comentários (0) Postar um Comentário

    Nenhum comentário encontrado. Seja o primeiro!