Cifra da música: Te adorar (Tab de guitarra) - Fernandinho

Esse cifra de Fernandinho já foi acessado por 2859 pessoas.

Comente

Veja também o vídeo da música tocada.


Introdução  
   Bm               Bm               A                A 
|--------------------------------------------------------------------------| 
|--3-2--3-2--3-2----3-2--3-2--3-2----2-0--2-0--2-0----2-0--2-0--2-0---{2}--| 
|--------------------------------------------------------------------------| 
|--------------------------------------------------------------------------| 
|--------------------------------------------------------------------------| 
|--------------------------------------------------------------------------| 
 
Solo da Introdução 
   Bm                 A                 Bm                    A 
|-------------------------------------------------10-9-----------------------| 
|---------------9/10----------------------------12----10---10------------10--| 
|------9/11--9------9/11------11-9---------9/11----------9----9/11--11h12----| 
|--7/9-------------------11h12-----12-11-9-----------------------------------| 
|----------------------------------------------------------------------------| 
|----------------------------------------------------------------------------| 
 
Solo da Introdução 2 
 
   A 
|-----9-10-9--------------------------| 
|--12--------10-----------------------| 
|---------------9--7-6----------------| 
|----------------------7--------------| 
|------------------------7-5-4~~~~ ---| 
|-------------------------------------| 
 
Solo Final: 
                                                         Bm  
|---------------------------------------------------------------------| 
|------------------------------------12-14--12-14-15-15---------------| 
|--------------11----11-12-14--12-14---------------------12-----------| 
|--12-11-12-14-----14-------------------------------------------------| 
|---------------------------------------------------------------------| 
|---------------------------------------------------------------------| 
 
             A       G           F#m Em      -    Bm  (4x)  -  D 
|-------------------------------------------/12--{10~~~~~~ }-----------| 
|--14h15-14------10-12--------12-10----9-12----------------------------| 
|-----------11--------------12-------9---------------------------------| 
|----------------------12--------------------------------------7-------| 
|--------------------------------------------------------------5-------| 
|----------------------------------------------------------------------|


Quer fazer uma correção nesta cifra?







    Comentários (0) Postar um Comentário

    Nenhum comentário encontrado. Seja o primeiro!