Cifra da música: Há um rio (Tab de guitarra) - Fernandinho

Esse cifra de Fernandinho já foi acessado por 8667 pessoas.

3.91 / 5 - 11
Comente

Veja também o vídeo da música tocada.


Tempo : 144 bmp aproximadamente

Intro (00:00 a 00:29)


     Am      F         C       G         Am      F         C       G       A5

E:-------------------|-----------------|-----------------|---------------|------
B:-------5---6-----6-|-5-----5-3-----3-|-----5---6-----6-|-5-----5-3-----|-13-10--
G:5x:--5-------5-----|---5-------4----:|---5-------5-----|---5-------4---|------
D:---7-----7-----7---|-----5-------5---|-7-----7-----7---|-----5-------5-|------
A:-------------------|-----------------|-----------------|---------------|------
E:-------------------|-----------------|-----------------|---------------|------

     P.M.................................................................


         F5            E5       A5

E:-------------------|----------------------------------------------------------
B:-12-13-10----12-13-|-9---12-13—-10~~~~----------------------------------------
G:----------10-------|---9------------------------------------------------------
D:-------------------|----------------------------------------------------------
A:-------------------|----------------------------------------------------------
E:-------------------|----------------------------------------------------------

Riff (03:08 a 03:22)

E:----------------|-----------------|--------------|-----------------|----------
B:----------------|-----------------|--------------|-----------------|----------
G:2x:-------------|-----------------|---------.----|----------------:|----------
D:----------------|-----------------|--------------|-----------------|----------
A:--------------3-|---4---5---6~~---|------------3-|---2-------------|---------
E:---5-3-5--------|-----------------|-5-3-5--------|-------3---5-----|---------

     PM...                            PM...

Arpejos (04:47 a 05:02)

     Am                      F                       C  

E:---12--8-----8-12--8-----8-13--8-----8-13--8-----8-15-12----12-15--12---12----
B:---------10----------10----------10----------10----------13----------13-------
G:4x:---------------------------------------------------------------------------
D:------------------------------------------------------------------------------
A:------------------------------------------------------------------------------
E:------------------------------------------------------------------------------

   G 

E:-10--7-----7-10--7-----7-
B:--------8-----------8----
G:------------------------:
D:-------------------------
A:-------------------------
E:-------------------------

Solo: (02:17 a 02:28)

E:-----------8-----------------------------------------------------------------
B:------8-10---10--10-13-12-8-10-/10--105--------5----------------------------
G:--7-9------------------------------------7-5-7----5/12~~~--------------------
D:-----------------------------------------------------------------------------
A:-----------------------------------------------------------------------------
E:-----------------------------------------------------------------------------

Tablatura Colaboração : Nill Carvalho ( [email protected] )


Quer fazer uma correção nesta cifra?







    Comentários (0) Postar um Comentário

    Nenhum comentário encontrado. Seja o primeiro!