Cifra da música: Eu Escolho Deus - Thalles Roberto

Esse cifra de Thalles Roberto já foi acessado por 68 pessoas.

Eu Escolho Deus 3.71/ 5 - 7
Comente

A música Eu Escolho Deus fez muito sucesso quando foi gravada por Thalles Roberto. Quer conhecer as demais músicas? Conheça as letras das músicas gravadas por Thalles Roberto e aproveite.


Tom: G

G5 C9
Senhor, eu nasci pra te chamar de Deus
Am7
Eu nasci pra te chamar de pai e andar do
C9
Seu lado
G5 C9
Senhor desde o ventre da minha mãe
Am7
Eu sou povo exclusivo Seu, eu sou
C9 G5
Abençoado se vivo obediente


C7M
-----------------------------------------
--------0------------------0-------------
----0-------0---------0--------0---------
--2---2---2---2-----2---2----2---2-------
3-----------------3----------------------
-----------------------------------------



D6(11)
-----------------------------------------
--------0------------------0-------------
----0-------0---------0--------0---------
--4---4---4---4-----4---4----4---4-------
5-----------------5----------------------
-----------------------------------------


C7M D6(11)
Mas todo dia o pecado vem, me
C7M
Chama
D6(11) C7M
Todo dia as propostas vêm, me chamam
D6(11) C7M
Todo dia vêm as tentações, me chamam
D6(11)
Todo dia o pecado vem


(refrão)
G5
Mas eu escolho Deus, eu escolho ser amigo
C9
De Deus
Am7
Eu escolho Cristo todo dia
C9
já morri pra minha vida agora vivo a vida de Deus! 2x


G5 C9
Senhor, eu nasci pra te chamar de Amor
Am7
Eu nasci pra te chamar de pai e andar do
C9
Seu lado
G C9
Senhor desde o ventre da minha mãe
Am7
Eu sou povo exclusivo Seu, eu sou
C9 G5
Abençoado se vivo obediente

C7M D6(11)
Mas todo dia o pecado vem, me
C7M
Chama
D6(11) C7M
Todo dia vêm as tentações, me chamam
D6(11) C7M
Todo dia as propostas vêm, me chamam
D6(11)
Todo dia o pecado vem

Quer fazer uma correção nesta cifra?

Para enviar você precisa efetuar um cadastro gratuito no site. Caso já tenha um cadastro, acesse aqui.


    Comentários (4) Postar um Comentário

    Bud comentou:

    Essa é a cifra original da musica

    Daniel Pereira Soares comentou:

    linda

    lorena kenia de jesus silva ramos comentou:

    vida de deus kkkk

    lorena kenia de jesus silva ramos comentou:

    kkkkkkkkkkkkkkkkkkkk aí aí aí show