Cifra da música: Eu te Amo (And I love Her) - Zezé Di Camargo e Luciano

Esse cifra de Zezé Di Camargo e Luciano já foi acessado por 4423 pessoas.

5.00 / 5 - 1
Comente

A música Eu te Amo (And I love Her) fez muito sucesso quando foi gravada por Zezé Di Camargo e Luciano. Quer conhecer as demais músicas? Conheça as letras das músicas gravadas por Zezé Di Camargo e Luciano e aproveite.

Veja também o vídeo da música tocada.


Versão 1
-======-

Tom: G  
Intro: (63 53 52 50 G Am) 3x  ou Am G Am

 Am           Em
Foi tanto que eu te amei
Am       Em
E não sabia
Am           Em
Que pouco a pouco eu
C        D7
Eu te perdia
      G
Eu te amo
Am        Em
E aquele louco amor
Am      Em
Inesquecível
Am       Em      C
Tirar do coração
        D7
É impossível
       G
Eu te amo
Em         D7
Te amei demais
Em       Bm  
Enlouqueci
  Em      Bm
Brigas banais
     D7
Te perdi
Am       Em
O tempo já passou
Am           Em
E eu não consigo
Am         Em 
Calar meu coração
 C         D7
E às vezes digo
        G
Eu te amo
(SOLO)
      
Am      Em
O tempo já passou
Am          Em
E eu não consigo
Am        Em
Calar meu coração
  C        D7
E às vezes digo
       G  Am
Eu te amo
       G   Am E
Eu te amo

SOLO:

e-|---------------------------|
B-|-----------3--1--4---------|
G-|-----0--1------------------|
D-|--3------------------------|
A-|---------------------------|
E-|---------------------------|

e-|---------------------------|
B-|-----------3--1------------|
G-|-----0--1------------------|
D-|--3------------------------|
A-|---------------------------|
E-|---------------------------|

e-|---------------------------|
B-|-----------3--1--4---------|
G-|-----0--1------------------|
D-|--3------------------------|
A-|---------------------------|
E-|---------------------------|

e-|---------------------------------|
B-|--4--1---------------------------|
G-|--------1--0----------------0----|
D-|--------------3------------------|
A-|-------------------3--1--3-------|
E-|---------------------------------|

Camilie essa musica vai pra vc  te amo!!

_____________________________________________________________________

Versão 2 para o solo
Faz uma vez o solo e da dois tempos com a nota Am depois faz o solo de 
novo e termina com Em.

Solinho
e----------------
B----0-----------
D--0---4--2------
A----------------
E----------------

 Am        Em            Am        Em
Foi tanto que eu te amei/ e não sabia/
Am          Em        C        D7      G
Que pouco a pouco eu/ eu te perdia/ Eu te amo... (Solo)2x
Am        Em        Am      Em     Am          Em
E aquele louco amor/ inesquecivel/ Tirar do coração 
C     D7           G
é impossivel/ Eu te amo...(Solo)2x
   Em            Bm         Em       Bm         D7
Te amei demais/  Enloqueci/ Brigas Banais/ Te Perdi
 Em        Bm     Em           Bm   Em
o tempo ja passou/ e eu não consigo/ calar meu 
   Bm    C           D7         G            
coração, E as vezes digo/ eu te amo...(Solo)2x     
  Am            Em
Na na na/ na na na- Eu te amo...(Solo)3x
 Am       Em      Am           Em    Am
O tempo ja passou/ e eu não consigo/ calar meu 
  Em     C           D7          G
coração/ E as vezes digo/ Eu te amo...(Solo)1x
       G                    G
Eu te amo...(Solo)1x Eu te amo...(Solo)1x.



Quer fazer uma correção nesta cifra?








    Comentários (1) Postar um Comentário

    Princy Magoo comentou:

    onde encontrar esta partitura para saxofone ?
    obrigado.