Cifra da música: Xou da Xuxa - Xuxa

Esse cifra de Xuxa já foi acessado por 1100 pessoas.

Comente

A música Xou da Xuxa fez muito sucesso quando foi gravada por Xuxa. Quer conhecer as demais músicas? Conheça as letras das músicas gravadas por Xuxa e aproveite.

Veja também o vídeo da música tocada.


TOM: Dm

A INTRODUÇÃO É COMPOSTA POR TRÊS ACORDES, NA SEGUINTE ORDEM:

Dm C Dm C Dm C Bb Bb
Dm C Dm C Dm C Bb Bb C C

TODOS OS ACORDES SOAM MELHOR SE TOCADOS COMO POWERCHORDS (SEM TERÇA)

DEPOIS VEM OS VERSOS, QUE EU TRANSFORMEI EM UM SOLO, A BASE VEM EMBAIXO DA TAB:

----------|-------------|-------------|5--|5-|------
-------5-6|---------5-6-|---------5-6-|-8-|-8|------
-7-7-7----|7v-7-7-7-----|7v-7-7-7-----|---|--|-7-7v-
----------|-------------|-------------|---|--|------
----------|-------------|-------------|---|--|------
----------|-------------|-------------|---|--|------
Dm........|Dm...........|Dm...........|Bb.|C.|Dm

----------|-------------|------------|-----------|5v-5-5-5-5-5-|-5v-5-5-5-5-5-
-------5-6|---------5-6-|---------5-6|8v-8-8-6-8-|-------------|--------------
-7-7-7----|7v-7-7-7-----|7v-7-7-7----|-----------|-------------|--------------
----------|-------------|------------|-----------|-------------|--------------
----------|-------------|------------|-----------|-------------|--------------
----------|-------------|------------|-----------|-------------|--------------
Dm........|Dm...........|Dm..........|(a partir daqui não consegui determinar uma base...
                                       costumo usar um C e depois um F durante todo o '55555')

5v-5-5-5-5-6|5-------5---
------------|--8-6-8---8v
------------|------------
------------|------------
------------|------------
------------|------------

AGORA A PARTE 'DOCE, DOCE, DOCE...'

8-5-8-5-8v-8-8-6-5-6---6---6v-6-6-5---5---5---5v-5-5--------   NÃO SEI A BASE PARA ESSA PARTE TB.
---------------------8---8----------8---6---6--------8-6-8v-
------------------------------------------------------------
------------------------------------------------------------
------------------------------------------------------------
------------------------------------------------------------

REPETIR A PARTE ACIMA MAIS UMA VEZ

BEM, ACHO Q A MUSICA É SÓ ISSO,
PQ NÃO TENHO DISCO OU FITA COM ELA
TIREI ELA DE MEMÓRIA, E NUNCA FUI FÃ DELA...
TIREI ESSA MUSICA SÓ PRA ZOAR COM A GALERA...

ABRAÇOS!
AH, CLARO, AGRADECIMENTOS:
AOS MEUS PAIS, POR ME DAREM O VIOLÃO E A GUITARRA, RAFAEL GOMES, FELIPE RANGEL E BANDA LACRIMA
POR ME FAZEREM RIR QUANDO EU SOU A PIADA E A DEUS, POR TER ME DADO A VIDA, E ALGUMA RAZÃO PARA
EU CONTINUAR VIVO (A MÚSICA, CLARO!)

PAULO HENRIQUE OLIVEIRA PORTO DE AMORIM ICQ: 127050372
EMAIL: [email protected]


Quer fazer uma correção nesta cifra?







    Comentários (0) Postar um Comentário

    Nenhum comentário encontrado. Seja o primeiro!