Cifra da música: Nossa Paz - Victor Ricardo

Esse cifra de Victor Ricardo já foi acessado por 167 pessoas.

Comente

Tom: C

Intro 2x: C5 D5 E5 A5

E|----------------------------------------------------|
B|----------------------------------------------------|
G|--5/7--5--7---5/7--5--7--99-------------------------|
D|--xxx--x--x---xxx--x--x--xx---2----22--2----22------|
A|--3/5--3--5---3/5--3--5--77---0h3--00--0h3--00------|
E|----------------------------------------------------|

E|----------|
B|----------|
G|----------|
D|--------0-|
A|--0h3p0---|
E|----------|

E|----------------------------------------------------|
B|----------------------------------------------------|
G|--5/7--5--7---5/7--5--7--99-------------------------|
D|--xxx--x--x---xxx--x--x--xx---2----22--2----22------|
A|--3/5--3--5---3/5--3--5--77---0h3--00--0h3--00------|
E|----------------------------------------------------|
                  H.N H.N
E|----------------------------------------------------|
B|----------------------------------------------------|
G|--------------------7-7-----------------------------|
D|--------0-2-0---7-7---------------------------------|
A|--0h3p0---------------------------------------------|
E|----------------------------------------------------|

Intro 2(2x): F G Am

Primeira parte: 

F                           G                        Am
        Quando olho em seus olhos eu consigo ver o amor,
F                                 G                           Am
        Mas menina quando eu te abraço, é o melhor que posso fazer
C                         G                Am
        Você desperta em mim o calor do verão, 
C                       G                        Am
        Calor que faz bater mais forte o meu coração.

E|----------------------------------------------------|
B|----------------------------------------------------|
G|--5/7--5--7---5/7--5--7--99-------------------------|
D|--xxx--x--x---xxx--x--x--xx---2----22--2----22------|
A|--3/5--3--5---3/5--3--5--77---0h3--00--0h3--00------|
E|----------------------------------------------------|

E|----------|
B|----------|
G|----------|
D|--------0-|
A|--0h3p0---|
E|----------|

E|----------------------------------------------------|
B|----------------------------------------------------|
G|--5/7--5--7---5/7--5--7--99-------------------------|
D|--xxx--x--x---xxx--x--x--xx---2----22--2----22------|
A|--3/5--3--5---3/5--3--5--77---0h3--00--0h3--00------|
E|----------------------------------------------------|

E|------------|
B|------------|
G|-------5-7--|
D|---5h7------|
A|------------|
E|------------|

F                                   G                   Am
        Me lembro que pouco tempo atrás isto não era possível,
F                           G                    Am
        As coisas eram diferentes, éramos inconsequentes,
C                           G                        Am
        Mas o que era impossível se tornou um dia incrível
C                    G         Am
        Sinto que podemos ir além.

Primeiro refrâo:

c                       G                       Am
        E se você precisasse de alguém para te confortar?
C                       G                        Am
        Talvez se precisasse de um tempo só para nós,
C                    G                        F    G
        Uma bela canção para celebrar a nossa paz.

Solo: (C5 A5 F5 G5) (2X)
       C5

E|-------------------------------|
B|-------------------------------|
G|-------------------9~----------| (2X)
D|--9-10-12--9-10-12----10-9-10~-|
A|-------------------------------|
E|-------------------------------|

E|-------------------------------|
B|-------------------10~---------|
G|-------9-----9-10------10-9-10~| (2X)
D|--9-10---10--------------------|
A|-------------------------------|
E|-------------------------------|

E|-------------------------------|
B|-------------------10~---------|
G|--9-10-12--9-10-12-----10-9-10-|
D|-------------------------------|
A|-------------------------------|
E|-------------------------------|

E|-------------------------------|
B|-------------------10~---------|
G|--9-10-12--9-10-12-----12-10-12|
D|-------------------------------|
A|-------------------------------|
E|-------------------------------|

E|-------------------------------|
B|-------------------------------|
G|--9-10-12-9----9---------------|
D|------------12---10~~----------|
A|-------------------------------|
E|-------------------------------|


Segunga parte:

F                         G          Am
        Você sabe que consegue me animar,
F                    G          Am
        Também nos trás muita sorte
C                 G              F       G           C
        Quando me sinto sozinho, você me mostra quem sou
C                            G            F           G          C
        Quando preciso de um ombro amigo, é para seus braços que vou

Segundo refrão:

C                       G                       Am
        E se você precisasse de alguém para te confortar?
C                       G                        Am
        Talvez se precisasse de um tempo só para nós,
C                    G                        F    G  C
        Uma bela canção para celebrar a nossa paz.

Quer fazer uma correção nesta cifra?







    Comentários (0) Postar um Comentário

    Nenhum comentário encontrado. Seja o primeiro!