Cifra da música: Heroin - Velvet Underground

Esse cifra de Velvet Underground já foi acessado por 910 pessoas.

Comente

A música Heroin fez muito sucesso quando foi gravada por Velvet Underground. Quer conhecer a letra dela? Veja a letra de Heroin e cante.

Veja também o vídeo da música tocada.


riff 1:
  D             G             D             G
|-2-------2---2-|-3-------3-----|-2-----3-2---2-|-3-------3---0-|
|-3-----3---3---|-0-----0---0---|-3---------3---|-0-----0---0---|
|-2---2---------|-0---0---------|-2---2---------|-0---0---------|
|-0-------------|-0-------------|-0-------------|-0-------------|
|---------------|-2-------------|---------------|-2-------------|
|---------------|-3-------------|---------------|-3-------------|
 
riff 2:
|-2----7----9---7----|
|-3----8----10--8----|        listen to the song to get the timing for
|-2----7----9---7----|        this part - it isn't broken up into bars
|-0------------------|        here.
|--------------------|
|--------------------|
 
riff 1 2X
 
D   G       D    G     D         G       D       G
   I  don't know  just where I'm going
    D        G         D           G            D


Quer fazer uma correção nesta cifra?







    Comentários (0) Postar um Comentário

    Nenhum comentário encontrado. Seja o primeiro!