Cifra da música: Everything about you - Ugly Kid Joe

Esse cifra de Ugly Kid Joe já foi acessado por 883 pessoas.

Comente

A música Everything about you fez muito sucesso quando foi gravada por Ugly Kid Joe. Quer conhecer a letra dela? Veja a letra de Everything about you e cante.

Veja também o vídeo da música tocada.


INTRO - Main riff and variations, clean guitar

----------------------------------------------------------------
--3-------------------------3-----------------------------------
--2----------2--------------2---------2-------------------------
--0----------2--------------0---------2-------------------------
-------2-----0-----0--2--0-------2----0----0--/10--0--9--7------
----------3------------------------3----------------------------

--------2----------------5---------------3----------------|
------3------------------------------------2--------------|
----2------------------2---------------------3----------2-| N.C
--0------------------2-----------------0----------------2-|
-------------2-----0----------0--2--0-------------2-----0-|
-----------------3-----------------------------------3----|


VERSE  - alternate between D and A chords as above, kick in with
         distortion and power chords about halfway


CHORUS - Power chords G and A 

I get sick when I'm around ..
I can't stand to be around ..
I hate everything about you


BRIDGE - G, G# and A arpeggio's with clean guitar

G                             G# 
Some say I got a bad attitude
A                                              G#
But that don't change the way I feel about you
G
etc.


SOLO   - Could someone figure that out please? I'm really lazy.


FAST PART - Just chop some powerchords


ENDING - Two guitars, one ascending, one descending

-------------------------------------------|--------------------
-------------------------------------------|--3------------2/3--
-------------------------------------------|----2-2-4-2----1/2--
-------------------------------------------|--------------------
--5--5----9--9---10-10---11-11---12-12~~~--|--------------------
--10-10---8--8---7--7----6--6----5--5~~~~--|--------------------




Quer fazer uma correção nesta cifra?







    Comentários (0) Postar um Comentário

    Nenhum comentário encontrado. Seja o primeiro!