Cifra da música: Always somewhere - Scorpions

Esse cifra de Scorpions já foi acessado por 1177 pessoas.

Comente

A música Always somewhere fez muito sucesso quando foi gravada por Scorpions. Quer conhecer a letra dela? Veja a letra de Always somewhere e cante.

Veja também o vídeo da música tocada.


Introdução: 1


	ESSA E A SEGUNDA introdução, percorre por toda musica.

TOQUE A INTRO 1  QUATRO VEZES  ATÉ CHEGAR O SOLO.

e|-----------------------3-----3--------------------------------------|
b|--------1-----1----------0-----0-------1-------1--------1-----1-----|
g|----------0-----0----------0-----0-------2-------2--------2-----2---|
d|------------2-----2------------------------2-------2--------2-------|
a|--0-2-3-----------------------------------------------0-------------|
E|---------------------3---------------1-------0----------------------|

Introdução: 2   ESSA INTRO 2 ACOMPANHA JUNTO A INTRO 1 MAS ISSO NA PARTE EM QUE A MUSICA É CANTADA...

e|------------------------------------------------------------------------|
b|--------1-----1--------------3-----3----------1-----1-----1-----1-------|
g|----------0-----0--------------4-----4-----2----2-----2-----2-----2-----|
d|------------2-----2----2-3-5-----5-----5----------2-----2-----2-----2---|
a|--0-2-3-----------------------------------------------------------------|
E|------------------------------------------------------------------------|
OBS: SÓ TOQUE ESTA INTRO 2 QUANDO A MUSICA É CANTADA.


DEPOIS DE FAZER A INTRO 1 VEM O PRIMEIRO SOLO. POIS NESSA MUSICA TEM 4 SOLOS. ESTOU APENAS COLOCANDO UM PARA SE
 TER UMA 'BASE'....
LOGO CORRIGIREI E COLOCAREI OS OUTROS.


(SOLO 1)
e|-----------------------------------------|
b|------------------------------10---------|
g|-----9--7---------------9--7-------------|
d|-----------10-9-10/7---------------------|
a|-----------------------------------------|
E|-----------------------------------------|



Arrive at seven the place feels good     


Quer fazer uma correção nesta cifra?







    Comentários (0) Postar um Comentário

    Nenhum comentário encontrado. Seja o primeiro!