Cifra da música: A Última Mentira - Sagrado Coração da Terra

Esse cifra de Sagrado Coração da Terra já foi acessado por 666 pessoas.

Comente

A música A Última Mentira fez muito sucesso quando foi gravada por Sagrado Coração da Terra. Quer conhecer as demais músicas? Conheça as letras das músicas gravadas por Sagrado Coração da Terra e aproveite.


Versão 1
-======-

Intro:  2x (C G Eb F) C

C             Ab
Não vou mais procurar
    Eb     G     Bb      F       C
Não tenho mais palavras prá explicar
        Ab
Algo mudou
     Eb    G       Bb     F    C         
Nem lembro quantas vezes eu tentei

(Refrão)    
 
C            Ab
Quem sabe afinal você possa          
Eb                                                     
Perceber                                             
    Bb                                           
Que nunca foi fácil
C          Ab
Fingir perdoar o que eu não
     Eb
Pude entender
    Bb             Ab  Bb Eb
Não quero mais me arrepender
        G        Ab
Não vou mais esperar
    Bb    Eb      G
Nem vou tomar seu tempo
Ab   Bb   Eb       G      Ab
Não quero mais me arrepender
           Bb
Não vou continuar

Tocar intro de novo !
 
C            Ab
Não vou mais perguntar
    Eb      G     Bb       F    C
Não tenho mais respostas prá te dar
         Ab
Tudo acabou
Eb    G     Bb     F     C
Mesmo sem motivos eu tentei

Refrão de novo !






Versão 2
-======-

A Ultima mentira (guitar tab)

Legenda:
|p.m.| = palm mute
/b/ = bend
/r/ = release

Acordes Ex:
C8= G|-5-|  G= D|-5-|  g= G|-10-|  g8= G|-10-| C4= D|-10-| G4= D|-5-| 
    D|-x-|     A|-5-|     D|-10-|      D|--x-|     A|--8-|     A|-3-|
    A|-3-|     E|-3-|     A|--8-|      A|--8-|     E|--8-|     E|-3-|
    

Intro guitar 1
E|--------------------------------------------------------------------------------------------|
B|-----------------------------------------------------------------6--------------------------|
G|-------7--------8--------10--------8--------7------7------8-------------8-------7-----------|
D|-10-10----10-10----10-10-----10-10----10-10----5-5----5-5----5-5----5-5-----5-5-------------|
A|--------------------------------------------------------------------------------------------|
E|--------------------------------------------------------------------------------------------|
  |-p.m.|  |-p.m.|  |-p.m.|   |-p.m.|  |-p.m.| |p.m.| |p.m.| |p.m.| |p.m.|  |p.m.|

E|-------------------------------------------------------------------------------------|
B|-------------------------------------------------------------------------------------|
G|-----8------7-------------------------------8------7------10------8------7-----------|
D|--------------------8-------5------8----6-6----6-6----6-6-----6-6----6-6-------------|
A|-6-6-----6-6----6-6-----6-6----6-6---------------------------------------------------|
E|-------------------------------------------------------------------------------------|
  |p.m.|  |p.m.| |p.m.|  |p.m.| |p.m.|   |p.m.| |p.m.| |p.m.|  |p.m.| |p.m.|

Intro guitar 2 
G4-G-Ab-C4
C8-C8-g8-f8

Canto1
guitar 2
C(x6)   Ab-Eb-g-Bb-F(x2)
guitar 1
C(x6)   Ab-Eb-g-Bb-F
Eb8(x6) Ab-Eb-g-D8-D8 

Ponte
guitar 2 
C-Ab-Eb-Bb (x2)
guitar 1
C8-Eb8-C8-f8-g8-f8-riff (x2)

E|-----------------------------------------------------------------------------|
B|-----------------------------------------------------------------------------|
G|-----8------7------10------8------7-------8------7---------------------------|
D|-8-8----8-8----8-8-----8-8----8-8-----------------------10------8------10----|
A|--------------------------------------8-8----8-8----8-8-----8-8----8-8-------|
E|-----------------------------------------------------------------------------|
  |p.m.| |p.m.| |p.m.| |p.m.| |-p.m.|  |p.m.| |p.m.| |p.m.|  |p.m.| |p.m.|

Refrão
guitar 1
Eb8-D8-Eb8-g8
Eb8-D8-Bb4-G
Eb8-D8-Eb8-g8
Ab-Bb-G
guitar 2
Ab-Bb-Eb8-D8-C8
Ab-Bb-Bb4-G
Ab-Bb-Eb8-D8-C8-Eb8
C8-D8-B8

Intro (guitar 2 entra em G)
Canto
Ponte
Refrão

Passagem
guitar 1 (x2)
C  G-Ab
C  G-Ab-F

guitar 2 (x2)
Eb8  f8-C8
Eb8  f8-g8-D8

Final
guitar 2 (x2)
E|-------------------------------------------------------------------|
B|-------------------------------------------------------------------|
G|-5-5-5-5-5---------------------------------------------------------|
D|-5-5-5-5-5-------------------------5-5-5-5-5-----------------------|
A|-3-3-3-3-3---6-6-5-5-6-6-8-8-6-6---5-5-5-5-5---6-6-5-5-6-6-8-8-6-6-|
E|-----------------------------------4-4-4-4-4-----------------------|
              |-------p.m.--------|             |--------p.m.-------| 
                                        (primeira vez) 
E|----------------------------------| |---------------------------------|
B|----------------------------------| |---------------------------------|
G|-6-6-6-6-6------------------------| |---------------------------------|
D|-6-6-6-6-6------------------------| |---------------------------------|
A|-4-4-4-4-4---6-6-5-5-6-6-8-8-6-6--| |-4-4-4-4-4---6-6-5-5-6-6-8-8-6-6-|
E|----------------------------------| |-6-6-6-6-6-----------------------|
              |-------p.m.--------|                |--------p.m.-------| 
   (segunda vez)
E|---------------------------------------------------|
B|---------------------------------------------------|
G|---------------------------------------------5-----|
D|-4-4-4-4-4-----------------------------------5-----|
A|-4-4-4-4-4---5-/b/-6-/r/-5---5-/b/-6-/r/-5---3-----|
E|-6-6-6-6-6-----------------------------------3-----|


guitar 1 (x2)
primeira vez igual guitar 2 sem primeira parte abafado
segunda vez:
E|-------------------------------------------------------------------|
B|-------------------------------------------------------------------|
G|-5-5-5-5-5---------------------------------------------------------|
D|-5-5-5-5-5---5-5-3-3-5-5-6-6-5-5---5-5-5-5-5---5-5-3-3-5-5-6-6-5-5-|
A|-3-3-3-3-3-------------------------5-5-5-5-5-----------------------|
E|-----------------------------------4-4-4-4-4-----------------------|
              |-------p.m.--------|             |--------p.m.-------|
E|-----------------------------------------------------------------------------------|
B|-----------------------------------------------------------------------------------|
G|---------------------------------------------------------------------------------5-|
D|-6-6-6-6-6---5-5-3-3-5-5-6-6-5-5---8-8-8-8-8-------------------------------------5-|
A|-4-4-4-4-4-------------------------8-8-8-8-8---8-/b/-10-/r/-8---8-/b/-10-/r/-8---3-|
E|-4-4-4-4-4-------------------------6-6-6-6-6-------------------------------------3-|
              |-------p.m.--------| 


------------------------

A ultima mentira 

Não vou mais procurar 
não tenho mais palavras pra explicar
algo mudou 
nem lembro quantas vezes eu tentei 
Quem sabe afinal você possa perceber
que nunca foi fácil fingir perdoar 
o que eu não pude entender

Não quero mais me arrepender 
não vou mais esperar 
nem vou tomar seu tempo
não quero mais me arrepender 
não vou continuar

Não vou mais perguntar
não tenho mais respostas pra te dar
tudo acabou 
mesmo sem motivos eu tentei



Quer fazer uma correção nesta cifra?







    Comentários (0) Postar um Comentário

    Nenhum comentário encontrado. Seja o primeiro!