Cifra da música: Sempre Assim - Restart

Esse cifra de Restart já foi acessado por 610 pessoas.

Comente

A música Sempre Assim fez muito sucesso quando foi gravada por Restart. Quer conhecer as demais músicas? Conheça as letras das músicas gravadas por Restart e aproveite.

Veja também o vídeo da música tocada.


E|--0--0--0--0--0--0--0--0--------0--0---0--0------0--0----0--0---0---0------
B|--5--5- 4- 4--5--5--4--4--------2--2---0---0------5--5----4--4---5---4------
G|------------------------------------------------------------------------------------

 (solo base)  A5    C#5  B5  A5

E             B5
Ja me cansei de esperar
C#5          B5           A5
você não quis ouvir, o que eu tinha pra falar
E        B5                C#5          B5
Agora são histórias, que nunca aconteceram
A5
Somente os desesperos

E|--0--0--0--0--0--0--0--0--0--0
B|--5--5--4- 4--5--5--4--4--5--5

C#5       B5               A5
Você só soube entender os erros
C#5       B5                    A5
quando somente tentei achar seus medos
C#5        B5                A5
Tudo que eu fiz agora não importa
C#5       B5             A5
Esqueça tudo e abra sua porta

E|--0--0--0--0--0--0--0--0--------0--0---0--0------0--0----0--0---0---0------
B|--5--5- 4- 4--5--5--4--4--------2--2---0---0------5--5----4--4---5---4------
G|------------------------------------------------------------------------------------

(solo base)  A5    C#5  B5  A5

E         B5                  C#5    B5     A5
Sentir o gosto de uma perda tão fatal
E          B5                    C#5   B5        A5
ja me inocivam que isso não foi tão real
C#5       B5               A5
Você só soube entender os erros
C#5       B5                    A5
quando somente tentei achar seus medos

C#5        B5                A5
Tudo que eu fiz agora não importa
C#5       B5             A5
Esqueça tudo e abra sua porta
E               B5                C#5    A5
Um dia as coisas mudam de lugar
E                 B5                C#5        A5
E o que era ontem, passa hoje e te faz chorar

E               B5                C#5    A5
Um dia as coisas mudam de lugar
E                 B5                C#5        A5
E o que era ontem, passa hoje e te faz chorar
Te faz Chorar

C#5       B5               A5
Você só soube entender os erros
C#5       B5                    A5
quando somente tentei achar seus medos
C#5        B5                A5
Tudo que eu fiz agora não importa
C#5       B5             A5
Esqueça tudo e abra sua porta
C#5       B5             A5
Esqueça tudo e abra sua porta

E|--0--0--0--0--0--0--0--0--------0--0---0--0------0--0----0--0---0---0------
B|--5--5- 4- 4--5--5--4--4--------2--2---0---0------5--5----4--4---5---4------
G|----------------------------------------------------------------------------------------

 (solo base)  A5    C#5  B5  A5


Quer fazer uma correção nesta cifra?








    Comentários (0) Postar um Comentário

    Nenhum comentário encontrado. Seja o primeiro!